ISO-10303-21;
HEADER;
FILE_DESCRIPTION (( 'STEP AP203' ),
    '1' );
FILE_NAME ('64795.step',
    '2021-11-01T09:46:01',
    ( '' ),
    ( '' ),
    'SwSTEP 2.0',
    'SolidWorks 2019',
    '' );
FILE_SCHEMA (( 'CONFIG_CONTROL_DESIGN' ));
ENDSEC;

DATA;
#1 = DIRECTION ( 'NONE',  ( 3.491481338843133355E-15, -1.227517819005651059E-16, 1.000000000000000000 ) ) ;
#2 = CIRCLE ( 'NONE', #133, 1.499999999999992895 ) ;
#3 = CARTESIAN_POINT ( 'NONE',  ( 1.326762908760390423E-13, -4.653657836759941941E-15, 38.00000000000000000 ) ) ;
#4 = EDGE_LOOP ( 'NONE', ( #154 ) ) ;
#5 = APPROVAL ( #220, 'UNSPECIFIED' ) ;
#6 = AXIS2_PLACEMENT_3D ( 'NONE', #151, #41, #147 ) ;
#7 = ORIENTED_EDGE ( 'NONE', *, *, #82, .F. ) ;
#8 = FACE_OUTER_BOUND ( 'NONE', #62, .T. ) ;
#9 = SECURITY_CLASSIFICATION_LEVEL ( 'unclassified' ) ;
#10 = CARTESIAN_POINT ( 'NONE',  ( -1.070060513822691091E-30, 1.507157805405534612E-32, -3.064775119712496159E-16 ) ) ;
#11 = CC_DESIGN_PERSON_AND_ORGANIZATION_ASSIGNMENT ( #83, #97, ( #189 ) ) ;
#12 = CC_DESIGN_DATE_AND_TIME_ASSIGNMENT ( #206, #49, ( #189 ) ) ;
#13 = CC_DESIGN_SECURITY_CLASSIFICATION ( #189, ( #162 ) ) ;
#14 = PERSON_AND_ORGANIZATION ( #63, #158 ) ;
#15 = ADVANCED_FACE ( 'NONE', ( #99 ), #26, .F. ) ;
#16 = VERTEX_POINT ( 'NONE', #72 ) ;
#17 = COORDINATED_UNIVERSAL_TIME_OFFSET ( 1, 0, .AHEAD. ) ;
#18 = DATE_AND_TIME ( #211, #90 ) ;
#19 = CARTESIAN_POINT ( 'NONE',  ( 0.0000000000000000000, 0.0000000000000000000, 0.0000000000000000000 ) ) ;
#20 = CC_DESIGN_DATE_AND_TIME_ASSIGNMENT ( #94, #110, ( #57 ) ) ;
#21 = CARTESIAN_POINT ( 'NONE',  ( -6.413731847436034514E-31, 0.0000000000000000000, -1.836965810494968570E-16 ) ) ;
#22 = ORIENTED_EDGE ( 'NONE', *, *, #29, .F. ) ;
#23 = EDGE_LOOP ( 'NONE', ( #132 ) ) ;
#24 = CARTESIAN_POINT ( 'NONE',  ( 1.316288464743861212E-13, -4.616918432785521081E-15, 37.69999999999999574 ) ) ;
#25 = LOCAL_TIME ( 10, 46, 1.000000000000000000, #40 ) ;
#26 = PLANE ( 'NONE',  #52 ) ;
#27 = APPLICATION_CONTEXT ( 'configuration controlled 3d designs of mechanical parts and assemblies' ) ;
#28 = AXIS2_PLACEMENT_3D ( 'NONE', #3, #185, #144 ) ;
#29 = EDGE_CURVE ( 'NONE', #34, #34, #221, .T. ) ;
#30 = PERSON_AND_ORGANIZATION_ROLE ( 'design_supplier' ) ;
#31 = APPROVAL_ROLE ( '' ) ;
#32 = DATE_AND_TIME ( #36, #214 ) ;
#33 = CARTESIAN_POINT ( 'NONE',  ( 0.0000000000000000000, 0.0000000000000000000, 0.0000000000000000000 ) ) ;
#34 = VERTEX_POINT ( 'NONE', #163 ) ;
#35 = UNCERTAINTY_MEASURE_WITH_UNIT (LENGTH_MEASURE( 1.000000000000000082E-05 ), #91, 'distance_accuracy_value', 'NONE');
#36 = CALENDAR_DATE ( 2021, 1, 11 ) ;
#37 = VERTEX_POINT ( 'NONE', #152 ) ;
#38 = AXIS2_PLACEMENT_3D ( 'NONE', #87, #1, #69 ) ;
#39 = PERSON_AND_ORGANIZATION ( #63, #158 ) ;
#40 = COORDINATED_UNIVERSAL_TIME_OFFSET ( 1, 0, .AHEAD. ) ;
#41 = DIRECTION ( 'NONE',  ( 3.491481338843133355E-15, -1.227517819005651059E-16, 1.000000000000000000 ) ) ;
#42 = ADVANCED_BREP_SHAPE_REPRESENTATION ( '64795', ( #50, #124, #223 ), #197 ) ;
#43 = DIRECTION ( 'NONE',  ( 0.0000000000000000000, 1.000000000000000000, 0.0000000000000000000 ) ) ;
#44 = ORIENTED_EDGE ( 'NONE', *, *, #118, .F. ) ;
#45 = APPLICATION_CONTEXT ( 'configuration controlled 3d designs of mechanical parts and assemblies' ) ;
#46 = EDGE_LOOP ( 'NONE', ( #22 ) ) ;
#47 = DATE_AND_TIME ( #191, #86 ) ;
#48 = AXIS2_PLACEMENT_3D ( 'NONE', #70, #115, #43 ) ;
#49 = DATE_TIME_ROLE ( 'classification_date' ) ;
#50 = MANIFOLD_SOLID_BREP ( 'Corps-Déplacer/Copier1[1]', #201 ) ;
#51 = ADVANCED_FACE ( 'NONE', ( #174 ), #135, .F. ) ;
#52 = AXIS2_PLACEMENT_3D ( 'NONE', #204, #116, #170 ) ;
#53 = DIRECTION ( 'NONE',  ( -4.285855558155653280E-31, -1.000000000000000000, -1.227517819005650812E-16 ) ) ;
#54 = AXIS2_PLACEMENT_3D ( 'NONE', #10, #161, #53 ) ;
#55 = FACE_OUTER_BOUND ( 'NONE', #173, .T. ) ;
#56 = CARTESIAN_POINT ( 'NONE',  ( 2.444036937190193033E-14, -8.592624733039555931E-16, 6.999999999999999112 ) ) ;
#57 = PRODUCT_DEFINITION ( 'UNKNOWN', '', #162, #88 ) ;
#58 = APPLICATION_PROTOCOL_DEFINITION ( 'international standard', 'config_control_design', 1994, #45 ) ;
#59 = APPROVAL_PERSON_ORGANIZATION ( #180, #101, #31 ) ;
#60 = FACE_OUTER_BOUND ( 'NONE', #205, .T. ) ;
#61 = FACE_BOUND ( 'NONE', #23, .T. ) ;
#62 = EDGE_LOOP ( 'NONE', ( #171 ) ) ;
#63 = PERSON ( 'UNSPECIFIED', 'UNSPECIFIED', 'UNSPECIFIED', ('UNSPECIFIED'), ('UNSPECIFIED'), ('UNSPECIFIED') ) ;
#64 = LOCAL_TIME ( 10, 46, 1.000000000000000000, #186 ) ;
#65 = ADVANCED_FACE ( 'NONE', ( #145 ), #222, .T. ) ;
#66 = CONICAL_SURFACE ( 'NONE', #28, 1.199999999999992184, 0.7853981633974468357 ) ;
#67 = ORIENTED_EDGE ( 'NONE', *, *, #122, .T. ) ;
#68 = CARTESIAN_POINT ( 'NONE',  ( 2.444036937190193349E-14, 1.124819836996383900E-32, 7.000000000000000000 ) ) ;
#69 = DIRECTION ( 'NONE',  ( -4.347973205882576304E-31, -1.000000000000000000, -1.227517819005651059E-16 ) ) ;
#70 = CARTESIAN_POINT ( 'NONE',  ( 1.326762908760390423E-13, -4.653657836759941941E-15, 38.00000000000000000 ) ) ;
#71 = DIRECTION ( 'NONE',  ( 0.0000000000000000000, 0.0000000000000000000, 1.000000000000000000 ) ) ;
#72 = CARTESIAN_POINT ( 'NONE',  ( 1.316288464743861212E-13, 1.499999999999988232, 37.69999999999999574 ) ) ;
#73 = CYLINDRICAL_SURFACE ( 'NONE', #176, 1.099999999999999423 ) ;
#74 = CYLINDRICAL_SURFACE ( 'NONE', #181, 1.499999999999990896 ) ;
#75 =( NAMED_UNIT ( * ) SI_UNIT ( $, .STERADIAN. ) SOLID_ANGLE_UNIT ( ) );
#76 = DIRECTION ( 'NONE',  ( 4.275831445896958607E-31, 1.000000000000000000, 1.224646799147353207E-16 ) ) ;
#77 = DIRECTION ( 'NONE',  ( -4.275831445896958607E-31, -1.000000000000000000, -1.224646799147353207E-16 ) ) ;
#78 = DIRECTION ( 'NONE',  ( -4.285855558155653280E-31, -1.000000000000000000, -1.227517819005650812E-16 ) ) ;
#79 = DIRECTION ( 'NONE',  ( 3.491481338843133355E-15, -1.224646799147353207E-16, 1.000000000000000000 ) ) ;
#80 = PERSON_AND_ORGANIZATION ( #63, #158 ) ;
#81 = ORIENTED_EDGE ( 'NONE', *, *, #118, .T. ) ;
#82 = EDGE_CURVE ( 'NONE', #37, #37, #143, .T. ) ;
#83 = PERSON_AND_ORGANIZATION ( #63, #158 ) ;
#84 = APPROVAL_DATE_TIME ( #47, #5 ) ;
#85 = CARTESIAN_POINT ( 'NONE',  ( 3.316208696091015359E-14, -3.066338529075440439E-16, 9.497999199359339784 ) ) ;
#86 = LOCAL_TIME ( 10, 46, 1.000000000000000000, #155 ) ;
#87 = CARTESIAN_POINT ( 'NONE',  ( 2.444036937190193033E-14, 0.0000000000000000000, 6.999999999999999112 ) ) ;
#88 = DESIGN_CONTEXT ( 'detailed design', #45, 'design' ) ;
#89 = APPROVAL_STATUS ( 'not_yet_approved' ) ;
#90 = LOCAL_TIME ( 10, 46, 1.000000000000000000, #17 ) ;
#91 =( LENGTH_UNIT ( ) NAMED_UNIT ( * ) SI_UNIT ( .MILLI., .METRE. ) );
#92 = CC_DESIGN_PERSON_AND_ORGANIZATION_ASSIGNMENT ( #95, #215, ( #57 ) ) ;
#93 = APPLICATION_PROTOCOL_DEFINITION ( 'international standard', 'config_control_design', 1994, #27 ) ;
#94 = DATE_AND_TIME ( #108, #25 ) ;
#95 = PERSON_AND_ORGANIZATION ( #63, #158 ) ;
#96 = CC_DESIGN_APPROVAL ( #101, ( #162 ) ) ;
#97 = PERSON_AND_ORGANIZATION_ROLE ( 'classification_officer' ) ;
#98 = ORIENTED_EDGE ( 'NONE', *, *, #122, .F. ) ;
#99 = FACE_OUTER_BOUND ( 'NONE', #100, .T. ) ;
#100 = EDGE_LOOP ( 'NONE', ( #7 ) ) ;
#101 = APPROVAL ( #89, 'UNSPECIFIED' ) ;
#102 = CLOSED_SHELL ( 'NONE', ( #65, #218, #51 ) ) ;
#103 = CARTESIAN_POINT ( 'NONE',  ( 2.444036937190193349E-14, 1.124819836996383900E-32, 7.000000000000000000 ) ) ;
#104 = AXIS2_PLACEMENT_3D ( 'NONE', #103, #194, #121 ) ;
#105 = PRODUCT_DEFINITION_SHAPE ( 'NONE', 'NONE',  #57 ) ;
#106 = CC_DESIGN_PERSON_AND_ORGANIZATION_ASSIGNMENT ( #148, #196, ( #162 ) ) ;
#107 = AXIS2_PLACEMENT_3D ( 'NONE', #85, #159, #160 ) ;
#108 = CALENDAR_DATE ( 2021, 1, 11 ) ;
#109 = APPROVAL_STATUS ( 'not_yet_approved' ) ;
#110 = DATE_TIME_ROLE ( 'creation_date' ) ;
#111 = DIRECTION ( 'NONE',  ( 3.491481338843133355E-15, -1.227517819005651059E-16, 1.000000000000000000 ) ) ;
#112 = ADVANCED_FACE ( 'NONE', ( #136, #8 ), #74, .T. ) ;
#113 = EDGE_LOOP ( 'NONE', ( #81 ) ) ;
#114 = AXIS2_PLACEMENT_3D ( 'NONE', #68, #79, #77 ) ;
#115 = DIRECTION ( 'NONE',  ( -3.491481338843133355E-15, 1.224646799147353207E-16, -1.000000000000000000 ) ) ;
#116 = DIRECTION ( 'NONE',  ( -3.491481338843133355E-15, 1.224646799147353207E-16, -1.000000000000000000 ) ) ;
#117 = CC_DESIGN_APPROVAL ( #5, ( #189 ) ) ;
#118 = EDGE_CURVE ( 'NONE', #146, #146, #195, .T. ) ;
#119 = PRODUCT_RELATED_PRODUCT_CATEGORY ( 'detail', '', ( #209 ) ) ;
#120 = TOROIDAL_SURFACE ( 'NONE', #38, 9.099999999999997868, 8.000000000000000000 ) ;
#121 = DIRECTION ( 'NONE',  ( -4.275831445896958607E-31, -1.000000000000000000, -1.224646799147353207E-16 ) ) ;
#122 = EDGE_CURVE ( 'NONE', #127, #127, #140, .T. ) ;
#123 = CARTESIAN_POINT ( 'NONE',  ( 2.444036937190193033E-14, -1.100000000000000311, 6.999999999999999112 ) ) ;
#124 = MANIFOLD_SOLID_BREP ( 'Corps-Déplacer/Copier1[2]', #102 ) ;
#125 = DIRECTION ( 'NONE',  ( 0.0000000000000000000, -1.000000000000000000, 0.0000000000000000000 ) ) ;
#126 = AXIS2_PLACEMENT_3D ( 'NONE', #56, #111, #125 ) ;
#127 = VERTEX_POINT ( 'NONE', #212 ) ;
#128 = CARTESIAN_POINT ( 'NONE',  ( 3.316208696091015359E-14, 1.499999999999990674, 9.497999199359339784 ) ) ;
#129 = ADVANCED_FACE ( 'NONE', ( #153, #131 ), #120, .F. ) ;
#130 = VERTEX_POINT ( 'NONE', #128 ) ;
#131 = FACE_OUTER_BOUND ( 'NONE', #169, .T. ) ;
#132 = ORIENTED_EDGE ( 'NONE', *, *, #82, .T. ) ;
#133 = AXIS2_PLACEMENT_3D ( 'NONE', #24, #142, #210 ) ;
#134 = CC_DESIGN_PERSON_AND_ORGANIZATION_ASSIGNMENT ( #202, #213, ( #209 ) ) ;
#135 = PLANE ( 'NONE',  #207 ) ;
#136 = FACE_OUTER_BOUND ( 'NONE', #137, .T. ) ;
#137 = EDGE_LOOP ( 'NONE', ( #216 ) ) ;
#138 = CIRCLE ( 'NONE', #107, 1.499999999999990896 ) ;
#139 = FACE_OUTER_BOUND ( 'NONE', #156, .T. ) ;
#140 = CIRCLE ( 'NONE', #126, 1.099999999999999423 ) ;
#141 = APPROVAL ( #109, 'UNSPECIFIED' ) ;
#142 = DIRECTION ( 'NONE',  ( -3.491481338843133355E-15, 1.224646799147353207E-16, -1.000000000000000000 ) ) ;
#143 = CIRCLE ( 'NONE', #48, 1.199999999999992184 ) ;
#144 = DIRECTION ( 'NONE',  ( 0.0000000000000000000, 1.000000000000000000, 0.0000000000000000000 ) ) ;
#145 = FACE_OUTER_BOUND ( 'NONE', #219, .T. ) ;
#146 = VERTEX_POINT ( 'NONE', #123 ) ;
#147 = DIRECTION ( 'NONE',  ( 0.0000000000000000000, -1.000000000000000000, 0.0000000000000000000 ) ) ;
#148 = PERSON_AND_ORGANIZATION ( #63, #158 ) ;
#149 = EDGE_CURVE ( 'NONE', #16, #16, #2, .T. ) ;
#150 = DIRECTION ( 'NONE',  ( 1.000000000000000000, 0.0000000000000000000, 0.0000000000000000000 ) ) ;
#151 = CARTESIAN_POINT ( 'NONE',  ( 2.444036937190193033E-14, -8.592624733039555931E-16, 6.999999999999999112 ) ) ;
#152 = CARTESIAN_POINT ( 'NONE',  ( 1.326762908760390423E-13, 1.199999999999987521, 38.00000000000000000 ) ) ;
#153 = FACE_OUTER_BOUND ( 'NONE', #113, .T. ) ;
#154 = ORIENTED_EDGE ( 'NONE', *, *, #29, .T. ) ;
#155 = COORDINATED_UNIVERSAL_TIME_OFFSET ( 1, 0, .AHEAD. ) ;
#156 = EDGE_LOOP ( 'NONE', ( #187 ) ) ;
#157 = CARTESIAN_POINT ( 'NONE',  ( -1.924129419174264339E-30, 6.748937501461144163E-32, -5.510925685805913103E-16 ) ) ;
#158 = ORGANIZATION ( 'UNSPECIFIED', 'UNSPECIFIED', '' ) ;
#159 = DIRECTION ( 'NONE',  ( -3.491481338843133355E-15, 1.227517819005651059E-16, -1.000000000000000000 ) ) ;
#160 = DIRECTION ( 'NONE',  ( 0.0000000000000000000, 1.000000000000000000, 0.0000000000000000000 ) ) ;
#161 = DIRECTION ( 'NONE',  ( 3.491481338843133355E-15, -1.227517819005651059E-16, 1.000000000000000000 ) ) ;
#162 = PRODUCT_DEFINITION_FORMATION_WITH_SPECIFIED_SOURCE ( 'ANY', '', #209, .NOT_KNOWN. ) ;
#163 = CARTESIAN_POINT ( 'NONE',  ( -1.541504625219812637E-30, -1.099999999999999201, -4.415044720618710992E-16 ) ) ;
#164 = CC_DESIGN_APPROVAL ( #141, ( #57 ) ) ;
#165 = DIRECTION ( 'NONE',  ( 3.491481338843133355E-15, -1.227517819005651059E-16, 1.000000000000000000 ) ) ;
#166 = MECHANICAL_CONTEXT ( 'NONE', #27, 'mechanical' ) ;
#167 =( NAMED_UNIT ( * ) PLANE_ANGLE_UNIT ( ) SI_UNIT ( $, .RADIAN. ) );
#168 = DIRECTION ( 'NONE',  ( -3.491481338843133355E-15, 1.224646799147353207E-16, -1.000000000000000000 ) ) ;
#169 = EDGE_LOOP ( 'NONE', ( #188 ) ) ;
#170 = DIRECTION ( 'NONE',  ( 4.275831445896958607E-31, 1.000000000000000000, 1.224646799147353207E-16 ) ) ;
#171 = ORIENTED_EDGE ( 'NONE', *, *, #183, .F. ) ;
#172 = SHAPE_DEFINITION_REPRESENTATION ( #105, #42 ) ;
#173 = EDGE_LOOP ( 'NONE', ( #44 ) ) ;
#174 = FACE_OUTER_BOUND ( 'NONE', #46, .T. ) ;
#175 = CALENDAR_DATE ( 2021, 1, 11 ) ;
#176 = AXIS2_PLACEMENT_3D ( 'NONE', #21, #165, #78 ) ;
#177 = DIRECTION ( 'NONE',  ( -4.275831445896958607E-31, -1.000000000000000000, -1.224646799147353207E-16 ) ) ;
#178 = PLANE ( 'NONE',  #104 ) ;
#179 = ADVANCED_FACE ( 'NONE', ( #55 ), #178, .F. ) ;
#180 = PERSON_AND_ORGANIZATION ( #63, #158 ) ;
#181 = AXIS2_PLACEMENT_3D ( 'NONE', #19, #168, #76 ) ;
#182 = APPROVAL_DATE_TIME ( #32, #101 ) ;
#183 = EDGE_CURVE ( 'NONE', #130, #130, #138, .T. ) ;
#184 = APPROVAL_ROLE ( '' ) ;
#185 = DIRECTION ( 'NONE',  ( -3.491481338843133355E-15, 1.224646799147353207E-16, -1.000000000000000000 ) ) ;
#186 = COORDINATED_UNIVERSAL_TIME_OFFSET ( 1, 0, .AHEAD. ) ;
#187 = ORIENTED_EDGE ( 'NONE', *, *, #149, .F. ) ;
#188 = ORIENTED_EDGE ( 'NONE', *, *, #183, .T. ) ;
#189 = SECURITY_CLASSIFICATION ( '', '', #9 ) ;
#190 = ADVANCED_FACE ( 'NONE', ( #139, #61 ), #66, .T. ) ;
#191 = CALENDAR_DATE ( 2021, 1, 11 ) ;
#192 = DIRECTION ( 'NONE',  ( 3.491481338843133355E-15, -1.224646799147353207E-16, 1.000000000000000000 ) ) ;
#193 = APPROVAL_ROLE ( '' ) ;
#194 = DIRECTION ( 'NONE',  ( 3.491481338843133355E-15, -1.224646799147353207E-16, 1.000000000000000000 ) ) ;
#195 = CIRCLE ( 'NONE', #6, 1.099999999999999423 ) ;
#196 = PERSON_AND_ORGANIZATION_ROLE ( 'creator' ) ;
#197 =( GEOMETRIC_REPRESENTATION_CONTEXT ( 3 ) GLOBAL_UNCERTAINTY_ASSIGNED_CONTEXT ( ( #35 ) ) GLOBAL_UNIT_ASSIGNED_CONTEXT ( ( #91, #167, #75 ) ) REPRESENTATION_CONTEXT ( 'NONE', 'WORKASPACE' ) );
#198 = APPROVAL_DATE_TIME ( #18, #141 ) ;
#199 = COORDINATED_UNIVERSAL_TIME_OFFSET ( 1, 0, .AHEAD. ) ;
#200 = FACE_OUTER_BOUND ( 'NONE', #4, .T. ) ;
#201 = CLOSED_SHELL ( 'NONE', ( #112, #190, #15, #129, #179 ) ) ;
#202 = PERSON_AND_ORGANIZATION ( #63, #158 ) ;
#203 = APPROVAL_PERSON_ORGANIZATION ( #39, #141, #184 ) ;
#204 = CARTESIAN_POINT ( 'NONE',  ( 1.326762908760390423E-13, 8.998558695971017012E-33, 38.00000000000000000 ) ) ;
#205 = EDGE_LOOP ( 'NONE', ( #98 ) ) ;
#206 = DATE_AND_TIME ( #175, #64 ) ;
#207 = AXIS2_PLACEMENT_3D ( 'NONE', #157, #192, #177 ) ;
#208 = CC_DESIGN_PERSON_AND_ORGANIZATION_ASSIGNMENT ( #14, #30, ( #162 ) ) ;
#209 = PRODUCT ( '64795', '64795', '', ( #166 ) ) ;
#210 = DIRECTION ( 'NONE',  ( 0.0000000000000000000, 1.000000000000000000, 0.0000000000000000000 ) ) ;
#211 = CALENDAR_DATE ( 2021, 1, 11 ) ;
#212 = CARTESIAN_POINT ( 'NONE',  ( 2.444036937190193033E-14, -1.100000000000000311, 6.999999999999999112 ) ) ;
#213 = PERSON_AND_ORGANIZATION_ROLE ( 'design_owner' ) ;
#214 = LOCAL_TIME ( 10, 46, 1.000000000000000000, #199 ) ;
#215 = PERSON_AND_ORGANIZATION_ROLE ( 'creator' ) ;
#216 = ORIENTED_EDGE ( 'NONE', *, *, #149, .T. ) ;
#217 = APPROVAL_PERSON_ORGANIZATION ( #80, #5, #193 ) ;
#218 = ADVANCED_FACE ( 'NONE', ( #200, #60 ), #73, .T. ) ;
#219 = EDGE_LOOP ( 'NONE', ( #67 ) ) ;
#220 = APPROVAL_STATUS ( 'not_yet_approved' ) ;
#221 = CIRCLE ( 'NONE', #54, 1.099999999999999201 ) ;
#222 = PLANE ( 'NONE',  #114 ) ;
#223 = AXIS2_PLACEMENT_3D ( 'NONE', #33, #71, #150 ) ;
ENDSEC;
END-ISO-10303-21;
