ISO-10303-21;
HEADER;
FILE_DESCRIPTION (( 'STEP AP203' ),
    '1' );
FILE_NAME ('64794.step',
    '2021-11-01T09:46:00',
    ( '' ),
    ( '' ),
    'SwSTEP 2.0',
    'SolidWorks 2019',
    '' );
FILE_SCHEMA (( 'CONFIG_CONTROL_DESIGN' ));
ENDSEC;

DATA;
#1 = DATE_TIME_ROLE ( 'classification_date' ) ;
#2 = DIRECTION ( 'NONE',  ( 0.0000000000000000000, 1.000000000000000000, 0.0000000000000000000 ) ) ;
#3 = DESIGN_CONTEXT ( 'detailed design', #108, 'design' ) ;
#4 = CARTESIAN_POINT ( 'NONE',  ( -1.520025226867742184E-30, -1.049999999999999378, -4.353525278675517454E-16 ) ) ;
#5 = CC_DESIGN_APPROVAL ( #93, ( #173 ) ) ;
#6 = DIRECTION ( 'NONE',  ( -4.275831445896958607E-31, -1.000000000000000000, -1.224646799147353207E-16 ) ) ;
#7 = APPROVAL_STATUS ( 'not_yet_approved' ) ;
#8 = CC_DESIGN_PERSON_AND_ORGANIZATION_ASSIGNMENT ( #32, #34, ( #200 ) ) ;
#9 = VERTEX_POINT ( 'NONE', #23 ) ;
#10 = CIRCLE ( 'NONE', #145, 1.199999999999992184 ) ;
#11 = VERTEX_POINT ( 'NONE', #24 ) ;
#12 = EDGE_LOOP ( 'NONE', ( #104 ) ) ;
#13 = ORIENTED_EDGE ( 'NONE', *, *, #39, .F. ) ;
#14 = CC_DESIGN_DATE_AND_TIME_ASSIGNMENT ( #57, #60, ( #173 ) ) ;
#15 = ORIENTED_EDGE ( 'NONE', *, *, #217, .T. ) ;
#16 = FACE_OUTER_BOUND ( 'NONE', #181, .T. ) ;
#17 = CC_DESIGN_PERSON_AND_ORGANIZATION_ASSIGNMENT ( #154, #188, ( #200 ) ) ;
#18 = LOCAL_TIME ( 10, 46, 0.0000000000000000000, #135 ) ;
#19 = CYLINDRICAL_SURFACE ( 'NONE', #139, 1.499999999999990896 ) ;
#20 = LOCAL_TIME ( 10, 46, 0.0000000000000000000, #75 ) ;
#21 = PERSON_AND_ORGANIZATION ( #196, #31 ) ;
#22 = PERSON_AND_ORGANIZATION ( #196, #31 ) ;
#23 = CARTESIAN_POINT ( 'NONE',  ( 1.316288464743861212E-13, 1.499999999999988232, 37.69999999999999574 ) ) ;
#24 = CARTESIAN_POINT ( 'NONE',  ( 2.444036937190193033E-14, -1.050000000000000488, 6.999999999999999112 ) ) ;
#25 = FACE_OUTER_BOUND ( 'NONE', #29, .T. ) ;
#26 = APPLICATION_PROTOCOL_DEFINITION ( 'international standard', 'config_control_design', 1994, #95 ) ;
#27 = EDGE_LOOP ( 'NONE', ( #99 ) ) ;
#28 = DIRECTION ( 'NONE',  ( 3.491481338843133355E-15, -1.227517819005651059E-16, 1.000000000000000000 ) ) ;
#29 = EDGE_LOOP ( 'NONE', ( #84 ) ) ;
#30 = APPROVAL_PERSON_ORGANIZATION ( #160, #93, #59 ) ;
#31 = ORGANIZATION ( 'UNSPECIFIED', 'UNSPECIFIED', '' ) ;
#32 = PERSON_AND_ORGANIZATION ( #196, #31 ) ;
#33 = ADVANCED_FACE ( 'NONE', ( #85, #152 ), #71, .T. ) ;
#34 = PERSON_AND_ORGANIZATION_ROLE ( 'design_supplier' ) ;
#35 = CIRCLE ( 'NONE', #133, 1.499999999999990896 ) ;
#36 = APPROVAL_STATUS ( 'not_yet_approved' ) ;
#37 = APPROVAL_STATUS ( 'not_yet_approved' ) ;
#38 = UNCERTAINTY_MEASURE_WITH_UNIT (LENGTH_MEASURE( 1.000000000000000082E-05 ), #96, 'distance_accuracy_value', 'NONE');
#39 = EDGE_CURVE ( 'NONE', #125, #125, #10, .T. ) ;
#40 =( GEOMETRIC_REPRESENTATION_CONTEXT ( 3 ) GLOBAL_UNCERTAINTY_ASSIGNED_CONTEXT ( ( #38 ) ) GLOBAL_UNIT_ASSIGNED_CONTEXT ( ( #96, #77, #82 ) ) REPRESENTATION_CONTEXT ( 'NONE', 'WORKASPACE' ) );
#41 = PERSON_AND_ORGANIZATION ( #196, #31 ) ;
#42 = PLANE ( 'NONE',  #223 ) ;
#43 = DIRECTION ( 'NONE',  ( -3.491481338843133355E-15, 1.224646799147353207E-16, -1.000000000000000000 ) ) ;
#44 = SECURITY_CLASSIFICATION ( '', '', #117 ) ;
#45 = CC_DESIGN_PERSON_AND_ORGANIZATION_ASSIGNMENT ( #21, #69, ( #44 ) ) ;
#46 = DIRECTION ( 'NONE',  ( 0.0000000000000000000, 1.000000000000000000, 0.0000000000000000000 ) ) ;
#47 = APPROVAL ( #37, 'UNSPECIFIED' ) ;
#48 = AXIS2_PLACEMENT_3D ( 'NONE', #58, #76, #124 ) ;
#49 = MANIFOLD_SOLID_BREP ( 'Corps-Déplacer/Copier1[1]', #109 ) ;
#50 = DATE_AND_TIME ( #172, #177 ) ;
#51 = ADVANCED_FACE ( 'NONE', ( #166, #131 ), #194, .F. ) ;
#52 = AXIS2_PLACEMENT_3D ( 'NONE', #151, #141, #221 ) ;
#53 = DIRECTION ( 'NONE',  ( -3.491481338843133355E-15, 1.224646799147353207E-16, -1.000000000000000000 ) ) ;
#54 = DIRECTION ( 'NONE',  ( 3.491481338843133355E-15, -1.227517819005651059E-16, 1.000000000000000000 ) ) ;
#55 = DATE_AND_TIME ( #209, #202 ) ;
#56 = DIRECTION ( 'NONE',  ( -3.491481338843133355E-15, 1.224646799147353207E-16, -1.000000000000000000 ) ) ;
#57 = DATE_AND_TIME ( #213, #184 ) ;
#58 = CARTESIAN_POINT ( 'NONE',  ( 1.326762908760390423E-13, 8.998558695971017012E-33, 38.00000000000000000 ) ) ;
#59 = APPROVAL_ROLE ( '' ) ;
#60 = DATE_TIME_ROLE ( 'creation_date' ) ;
#61 = ORIENTED_EDGE ( 'NONE', *, *, #120, .T. ) ;
#62 = CIRCLE ( 'NONE', #215, 1.049999999999999378 ) ;
#63 = CARTESIAN_POINT ( 'NONE',  ( 1.326762908760390423E-13, -4.653657836759941941E-15, 38.00000000000000000 ) ) ;
#64 = CC_DESIGN_DATE_AND_TIME_ASSIGNMENT ( #50, #1, ( #44 ) ) ;
#65 = AXIS2_PLACEMENT_3D ( 'NONE', #208, #54, #118 ) ;
#66 = EDGE_LOOP ( 'NONE', ( #15 ) ) ;
#67 = PLANE ( 'NONE',  #114 ) ;
#68 = CC_DESIGN_PERSON_AND_ORGANIZATION_ASSIGNMENT ( #22, #142, ( #173 ) ) ;
#69 = PERSON_AND_ORGANIZATION_ROLE ( 'classification_officer' ) ;
#70 = CARTESIAN_POINT ( 'NONE',  ( -1.070010393261398835E-30, 1.506981594003800211E-32, -3.064631568719585248E-16 ) ) ;
#71 = CONICAL_SURFACE ( 'NONE', #150, 1.199999999999992184, 0.7853981633974468357 ) ;
#72 = AXIS2_PLACEMENT_3D ( 'NONE', #115, #43, #132 ) ;
#73 = DIRECTION ( 'NONE',  ( -4.275831445896958607E-31, -1.000000000000000000, -1.224646799147353207E-16 ) ) ;
#74 = CARTESIAN_POINT ( 'NONE',  ( 2.444036937190193033E-14, -1.050000000000000488, 6.999999999999999112 ) ) ;
#75 = COORDINATED_UNIVERSAL_TIME_OFFSET ( 1, 0, .AHEAD. ) ;
#76 = DIRECTION ( 'NONE',  ( -3.491481338843133355E-15, 1.224646799147353207E-16, -1.000000000000000000 ) ) ;
#77 =( NAMED_UNIT ( * ) PLANE_ANGLE_UNIT ( ) SI_UNIT ( $, .RADIAN. ) );
#78 = AXIS2_PLACEMENT_3D ( 'NONE', #198, #28, #137 ) ;
#79 = DIRECTION ( 'NONE',  ( -4.275831445896958607E-31, -1.000000000000000000, -1.224646799147353207E-16 ) ) ;
#80 = DIRECTION ( 'NONE',  ( 3.491481338843133355E-15, -1.224646799147353207E-16, 1.000000000000000000 ) ) ;
#81 = ADVANCED_FACE ( 'NONE', ( #169 ), #67, .T. ) ;
#82 =( NAMED_UNIT ( * ) SI_UNIT ( $, .STERADIAN. ) SOLID_ANGLE_UNIT ( ) );
#83 = CARTESIAN_POINT ( 'NONE',  ( 2.444036937190193349E-14, 1.124819836996383900E-32, 7.000000000000000000 ) ) ;
#84 = ORIENTED_EDGE ( 'NONE', *, *, #182, .F. ) ;
#85 = FACE_OUTER_BOUND ( 'NONE', #103, .T. ) ;
#86 = ORIENTED_EDGE ( 'NONE', *, *, #120, .F. ) ;
#87 = CARTESIAN_POINT ( 'NONE',  ( 0.0000000000000000000, 0.0000000000000000000, 0.0000000000000000000 ) ) ;
#88 = CALENDAR_DATE ( 2021, 1, 11 ) ;
#89 = CIRCLE ( 'NONE', #65, 1.049999999999999822 ) ;
#90 = DIRECTION ( 'NONE',  ( -3.491481338843133355E-15, 1.227517819005651059E-16, -1.000000000000000000 ) ) ;
#91 = COORDINATED_UNIVERSAL_TIME_OFFSET ( 1, 0, .AHEAD. ) ;
#92 = DIRECTION ( 'NONE',  ( 4.275831445896958607E-31, 1.000000000000000000, 1.224646799147353207E-16 ) ) ;
#93 = APPROVAL ( #7, 'UNSPECIFIED' ) ;
#94 = APPLICATION_PROTOCOL_DEFINITION ( 'international standard', 'config_control_design', 1994, #108 ) ;
#95 = APPLICATION_CONTEXT ( 'configuration controlled 3d designs of mechanical parts and assemblies' ) ;
#96 =( LENGTH_UNIT ( ) NAMED_UNIT ( * ) SI_UNIT ( .MILLI., .METRE. ) );
#97 = CALENDAR_DATE ( 2021, 1, 11 ) ;
#98 = APPROVAL_PERSON_ORGANIZATION ( #126, #47, #138 ) ;
#99 = ORIENTED_EDGE ( 'NONE', *, *, #201, .T. ) ;
#100 = EDGE_LOOP ( 'NONE', ( #197 ) ) ;
#101 = CARTESIAN_POINT ( 'NONE',  ( 1.326762908760390423E-13, -4.653657836759941941E-15, 38.00000000000000000 ) ) ;
#102 = CLOSED_SHELL ( 'NONE', ( #81, #171, #170 ) ) ;
#103 = EDGE_LOOP ( 'NONE', ( #86 ) ) ;
#104 = ORIENTED_EDGE ( 'NONE', *, *, #186, .F. ) ;
#105 = FACE_OUTER_BOUND ( 'NONE', #185, .T. ) ;
#106 = CC_DESIGN_APPROVAL ( #47, ( #200 ) ) ;
#107 = DIRECTION ( 'NONE',  ( 3.491481338843133355E-15, -1.227517819005651059E-16, 1.000000000000000000 ) ) ;
#108 = APPLICATION_CONTEXT ( 'configuration controlled 3d designs of mechanical parts and assemblies' ) ;
#109 = CLOSED_SHELL ( 'NONE', ( #204, #33, #162, #51, #222 ) ) ;
#110 = VERTEX_POINT ( 'NONE', #176 ) ;
#111 = DIRECTION ( 'NONE',  ( 0.0000000000000000000, 0.0000000000000000000, 1.000000000000000000 ) ) ;
#112 = DIRECTION ( 'NONE',  ( 3.491481338843133355E-15, -1.224646799147353207E-16, 1.000000000000000000 ) ) ;
#113 = FACE_OUTER_BOUND ( 'NONE', #199, .T. ) ;
#114 = AXIS2_PLACEMENT_3D ( 'NONE', #83, #80, #73 ) ;
#115 = CARTESIAN_POINT ( 'NONE',  ( 1.316288464743861212E-13, -4.616918432785521081E-15, 37.69999999999999574 ) ) ;
#116 = ORIENTED_EDGE ( 'NONE', *, *, #182, .T. ) ;
#117 = SECURITY_CLASSIFICATION_LEVEL ( 'unclassified' ) ;
#118 = DIRECTION ( 'NONE',  ( 0.0000000000000000000, -1.000000000000000000, 0.0000000000000000000 ) ) ;
#119 = APPROVAL_DATE_TIME ( #55, #210 ) ;
#120 = EDGE_CURVE ( 'NONE', #9, #9, #159, .T. ) ;
#121 = DATE_AND_TIME ( #97, #20 ) ;
#122 = MANIFOLD_SOLID_BREP ( 'Corps-Déplacer/Copier1[2]', #102 ) ;
#123 = FACE_OUTER_BOUND ( 'NONE', #100, .T. ) ;
#124 = DIRECTION ( 'NONE',  ( 4.275831445896958607E-31, 1.000000000000000000, 1.224646799147353207E-16 ) ) ;
#125 = VERTEX_POINT ( 'NONE', #144 ) ;
#126 = PERSON_AND_ORGANIZATION ( #196, #31 ) ;
#127 = CYLINDRICAL_SURFACE ( 'NONE', #78, 1.049999999999999600 ) ;
#128 = ORIENTED_EDGE ( 'NONE', *, *, #39, .T. ) ;
#129 = AXIS2_PLACEMENT_3D ( 'NONE', #178, #112, #6 ) ;
#130 = DIRECTION ( 'NONE',  ( -3.491481338843133355E-15, 1.224646799147353207E-16, -1.000000000000000000 ) ) ;
#131 = FACE_OUTER_BOUND ( 'NONE', #216, .T. ) ;
#132 = DIRECTION ( 'NONE',  ( 0.0000000000000000000, 1.000000000000000000, 0.0000000000000000000 ) ) ;
#133 = AXIS2_PLACEMENT_3D ( 'NONE', #134, #90, #2 ) ;
#134 = CARTESIAN_POINT ( 'NONE',  ( 3.367631098451396915E-14, -3.247126879542066975E-16, 9.645278813282235575 ) ) ;
#135 = COORDINATED_UNIVERSAL_TIME_OFFSET ( 1, 0, .AHEAD. ) ;
#136 = CIRCLE ( 'NONE', #189, 1.049999999999999822 ) ;
#137 = DIRECTION ( 'NONE',  ( -4.285855558155652404E-31, -1.000000000000000000, -1.227517819005651059E-16 ) ) ;
#138 = APPROVAL_ROLE ( '' ) ;
#139 = AXIS2_PLACEMENT_3D ( 'NONE', #87, #56, #92 ) ;
#140 = CARTESIAN_POINT ( 'NONE',  ( 0.0000000000000000000, 0.0000000000000000000, 0.0000000000000000000 ) ) ;
#141 = DIRECTION ( 'NONE',  ( 3.491481338843133355E-15, -1.227517819005651059E-16, 1.000000000000000000 ) ) ;
#142 = PERSON_AND_ORGANIZATION_ROLE ( 'creator' ) ;
#143 = PLANE ( 'NONE',  #48 ) ;
#144 = CARTESIAN_POINT ( 'NONE',  ( 1.326762908760390423E-13, 1.199999999999987521, 38.00000000000000000 ) ) ;
#145 = AXIS2_PLACEMENT_3D ( 'NONE', #63, #53, #155 ) ;
#146 = FACE_OUTER_BOUND ( 'NONE', #220, .T. ) ;
#147 = MECHANICAL_CONTEXT ( 'NONE', #95, 'mechanical' ) ;
#148 = CARTESIAN_POINT ( 'NONE',  ( -1.924129419174264339E-30, 6.748937501461144163E-32, -5.510925685805913103E-16 ) ) ;
#149 = EDGE_LOOP ( 'NONE', ( #128 ) ) ;
#150 = AXIS2_PLACEMENT_3D ( 'NONE', #101, #130, #46 ) ;
#151 = CARTESIAN_POINT ( 'NONE',  ( 2.444036937190193033E-14, 0.0000000000000000000, 6.999999999999999112 ) ) ;
#152 = FACE_BOUND ( 'NONE', #149, .T. ) ;
#153 = PRODUCT_DEFINITION_SHAPE ( 'NONE', 'NONE',  #173 ) ;
#154 = PERSON_AND_ORGANIZATION ( #196, #31 ) ;
#155 = DIRECTION ( 'NONE',  ( 0.0000000000000000000, 1.000000000000000000, 0.0000000000000000000 ) ) ;
#156 = DIRECTION ( 'NONE',  ( -4.285855558155652404E-31, -1.000000000000000000, -1.227517819005650566E-16 ) ) ;
#157 = APPROVAL_DATE_TIME ( #205, #47 ) ;
#158 = CC_DESIGN_PERSON_AND_ORGANIZATION_ASSIGNMENT ( #41, #175, ( #183 ) ) ;
#159 = CIRCLE ( 'NONE', #72, 1.499999999999992895 ) ;
#160 = PERSON_AND_ORGANIZATION ( #196, #31 ) ;
#161 = DIRECTION ( 'NONE',  ( 3.491481338843133355E-15, -1.224646799147353207E-16, 1.000000000000000000 ) ) ;
#162 = ADVANCED_FACE ( 'NONE', ( #16 ), #143, .F. ) ;
#163 = APPROVAL_PERSON_ORGANIZATION ( #207, #210, #187 ) ;
#164 = APPROVAL_DATE_TIME ( #121, #93 ) ;
#165 = AXIS2_PLACEMENT_3D ( 'NONE', #140, #111, #212 ) ;
#166 = FACE_OUTER_BOUND ( 'NONE', #66, .T. ) ;
#167 = CC_DESIGN_SECURITY_CLASSIFICATION ( #44, ( #200 ) ) ;
#168 = FACE_OUTER_BOUND ( 'NONE', #12, .T. ) ;
#169 = FACE_OUTER_BOUND ( 'NONE', #27, .T. ) ;
#170 = ADVANCED_FACE ( 'NONE', ( #25 ), #42, .F. ) ;
#171 = ADVANCED_FACE ( 'NONE', ( #146, #113 ), #127, .T. ) ;
#172 = CALENDAR_DATE ( 2021, 1, 11 ) ;
#173 = PRODUCT_DEFINITION ( 'UNKNOWN', '', #200, #3 ) ;
#174 = ADVANCED_BREP_SHAPE_REPRESENTATION ( '64794', ( #49, #122, #165 ), #40 ) ;
#175 = PERSON_AND_ORGANIZATION_ROLE ( 'design_owner' ) ;
#176 = CARTESIAN_POINT ( 'NONE',  ( 3.367631098451396915E-14, 1.499999999999990674, 9.645278813282235575 ) ) ;
#177 = LOCAL_TIME ( 10, 46, 0.0000000000000000000, #203 ) ;
#178 = CARTESIAN_POINT ( 'NONE',  ( 2.444036937190193349E-14, 1.124819836996383900E-32, 7.000000000000000000 ) ) ;
#179 = DIRECTION ( 'NONE',  ( 0.0000000000000000000, -1.000000000000000000, 0.0000000000000000000 ) ) ;
#180 = PLANE ( 'NONE',  #129 ) ;
#181 = EDGE_LOOP ( 'NONE', ( #13 ) ) ;
#182 = EDGE_CURVE ( 'NONE', #193, #193, #62, .T. ) ;
#183 = PRODUCT ( '64794', '64794', '', ( #147 ) ) ;
#184 = LOCAL_TIME ( 10, 46, 0.0000000000000000000, #211 ) ;
#185 = EDGE_LOOP ( 'NONE', ( #61 ) ) ;
#186 = EDGE_CURVE ( 'NONE', #110, #110, #35, .T. ) ;
#187 = APPROVAL_ROLE ( '' ) ;
#188 = PERSON_AND_ORGANIZATION_ROLE ( 'creator' ) ;
#189 = AXIS2_PLACEMENT_3D ( 'NONE', #191, #107, #179 ) ;
#190 = SHAPE_DEFINITION_REPRESENTATION ( #153, #174 ) ;
#191 = CARTESIAN_POINT ( 'NONE',  ( 2.444036937190193033E-14, -8.592624733039555931E-16, 6.999999999999999112 ) ) ;
#192 = PRODUCT_RELATED_PRODUCT_CATEGORY ( 'detail', '', ( #183 ) ) ;
#193 = VERTEX_POINT ( 'NONE', #4 ) ;
#194 = TOROIDAL_SURFACE ( 'NONE', #52, 9.049999999999998934, 8.000000000000000000 ) ;
#195 = VERTEX_POINT ( 'NONE', #74 ) ;
#196 = PERSON ( 'UNSPECIFIED', 'UNSPECIFIED', 'UNSPECIFIED', ('UNSPECIFIED'), ('UNSPECIFIED'), ('UNSPECIFIED') ) ;
#197 = ORIENTED_EDGE ( 'NONE', *, *, #217, .F. ) ;
#198 = CARTESIAN_POINT ( 'NONE',  ( -6.413731847436034514E-31, 0.0000000000000000000, -1.836965810494968570E-16 ) ) ;
#199 = EDGE_LOOP ( 'NONE', ( #214 ) ) ;
#200 = PRODUCT_DEFINITION_FORMATION_WITH_SPECIFIED_SOURCE ( 'ANY', '', #183, .NOT_KNOWN. ) ;
#201 = EDGE_CURVE ( 'NONE', #11, #11, #89, .T. ) ;
#202 = LOCAL_TIME ( 10, 46, 0.0000000000000000000, #91 ) ;
#203 = COORDINATED_UNIVERSAL_TIME_OFFSET ( 1, 0, .AHEAD. ) ;
#204 = ADVANCED_FACE ( 'NONE', ( #105, #168 ), #19, .T. ) ;
#205 = DATE_AND_TIME ( #88, #18 ) ;
#206 = DIRECTION ( 'NONE',  ( 3.491481338843133355E-15, -1.227517819005651059E-16, 1.000000000000000000 ) ) ;
#207 = PERSON_AND_ORGANIZATION ( #196, #31 ) ;
#208 = CARTESIAN_POINT ( 'NONE',  ( 2.444036937190193033E-14, -8.592624733039555931E-16, 6.999999999999999112 ) ) ;
#209 = CALENDAR_DATE ( 2021, 1, 11 ) ;
#210 = APPROVAL ( #36, 'UNSPECIFIED' ) ;
#211 = COORDINATED_UNIVERSAL_TIME_OFFSET ( 1, 0, .AHEAD. ) ;
#212 = DIRECTION ( 'NONE',  ( 1.000000000000000000, 0.0000000000000000000, 0.0000000000000000000 ) ) ;
#213 = CALENDAR_DATE ( 2021, 1, 11 ) ;
#214 = ORIENTED_EDGE ( 'NONE', *, *, #201, .F. ) ;
#215 = AXIS2_PLACEMENT_3D ( 'NONE', #70, #206, #156 ) ;
#216 = EDGE_LOOP ( 'NONE', ( #218 ) ) ;
#217 = EDGE_CURVE ( 'NONE', #195, #195, #136, .T. ) ;
#218 = ORIENTED_EDGE ( 'NONE', *, *, #186, .T. ) ;
#219 = CC_DESIGN_APPROVAL ( #210, ( #44 ) ) ;
#220 = EDGE_LOOP ( 'NONE', ( #116 ) ) ;
#221 = DIRECTION ( 'NONE',  ( -4.348155369072392588E-31, -1.000000000000000000, -1.227517819005651059E-16 ) ) ;
#222 = ADVANCED_FACE ( 'NONE', ( #123 ), #180, .F. ) ;
#223 = AXIS2_PLACEMENT_3D ( 'NONE', #148, #161, #79 ) ;
ENDSEC;
END-ISO-10303-21;
