ISO-10303-21;
HEADER;
FILE_DESCRIPTION (( 'STEP AP203' ),
    '1' );
FILE_NAME ('645.step',
    '2021-12-06T13:00:04',
    ( '' ),
    ( '' ),
    'SwSTEP 2.0',
    'SolidWorks 2019',
    '' );
FILE_SCHEMA (( 'CONFIG_CONTROL_DESIGN' ));
ENDSEC;

DATA;
#1 = CC_DESIGN_APPROVAL ( #146, ( #56 ) ) ;
#2 = ORIENTED_EDGE ( 'NONE', *, *, #142, .F. ) ;
#3 = APPROVAL_PERSON_ORGANIZATION ( #55, #157, #108 ) ;
#4 = CARTESIAN_POINT ( 'NONE',  ( 6.982962677686266711E-15, 4.000000000000000000, 2.000000000000000000 ) ) ;
#5 = PRODUCT ( '645', '645', '', ( #49 ) ) ;
#6 = PLANE ( 'NONE',  #85 ) ;
#7 = CYLINDRICAL_SURFACE ( 'NONE', #103, 15.00000000000000000 ) ;
#8 = DIRECTION ( 'NONE',  ( -3.491481338843133355E-15, 1.224646799147353207E-16, -1.000000000000000000 ) ) ;
#9 = CARTESIAN_POINT ( 'NONE',  ( 6.982962677686260400E-15, -2.449293598294704442E-16, 1.999999999999998224 ) ) ;
#10 = PERSON_AND_ORGANIZATION ( #156, #58 ) ;
#11 = APPROVAL_STATUS ( 'not_yet_approved' ) ;
#12 = COORDINATED_UNIVERSAL_TIME_OFFSET ( 1, 0, .AHEAD. ) ;
#13 = MANIFOLD_SOLID_BREP ( 'Corps-Déplacer/Copier1', #73 ) ;
#14 = ORIENTED_EDGE ( 'NONE', *, *, #124, .F. ) ;
#15 = CC_DESIGN_DATE_AND_TIME_ASSIGNMENT ( #119, #95, ( #57 ) ) ;
#16 = UNCERTAINTY_MEASURE_WITH_UNIT (LENGTH_MEASURE( 1.000000000000000082E-05 ), #51, 'distance_accuracy_value', 'NONE');
#17 = CARTESIAN_POINT ( 'NONE',  ( -2.351707295243326971E-30, 4.000000000000000000, -6.735557395310442023E-16 ) ) ;
#18 = CARTESIAN_POINT ( 'NONE',  ( -6.413747168845438085E-30, 2.249639673992786193E-31, -1.836970198721029589E-15 ) ) ;
#19 = DIRECTION ( 'NONE',  ( 4.275831445896958607E-31, 1.000000000000000000, 1.224646799147353207E-16 ) ) ;
#20 = LOCAL_TIME ( 14, 0, 4.000000000000000000, #93 ) ;
#21 = CARTESIAN_POINT ( 'NONE',  ( -1.710332578358783092E-30, 5.999039130647430431E-32, -4.898587196589412829E-16 ) ) ;
#22 = DATE_AND_TIME ( #140, #20 ) ;
#23 = PERSON_AND_ORGANIZATION ( #156, #58 ) ;
#24 = APPROVAL_STATUS ( 'not_yet_approved' ) ;
#25 = DATE_AND_TIME ( #152, #29 ) ;
#26 = LOCAL_TIME ( 14, 0, 4.000000000000000000, #131 ) ;
#27 = EDGE_LOOP ( 'NONE', ( #144 ) ) ;
#28 = CYLINDRICAL_SURFACE ( 'NONE', #110, 4.000000000000000000 ) ;
#29 = LOCAL_TIME ( 14, 0, 4.000000000000000000, #111 ) ;
#30 = CC_DESIGN_APPROVAL ( #157, ( #126 ) ) ;
#31 = ORIENTED_EDGE ( 'NONE', *, *, #124, .T. ) ;
#32 = CARTESIAN_POINT ( 'NONE',  ( 0.0000000000000000000, 15.00000000000000000, 0.0000000000000000000 ) ) ;
#33 =( GEOMETRIC_REPRESENTATION_CONTEXT ( 3 ) GLOBAL_UNCERTAINTY_ASSIGNED_CONTEXT ( ( #16 ) ) GLOBAL_UNIT_ASSIGNED_CONTEXT ( ( #51, #92, #36 ) ) REPRESENTATION_CONTEXT ( 'NONE', 'WORKASPACE' ) );
#34 = FACE_BOUND ( 'NONE', #27, .T. ) ;
#35 = ADVANCED_FACE ( 'NONE', ( #145, #159 ), #28, .F. ) ;
#36 =( NAMED_UNIT ( * ) SI_UNIT ( $, .STERADIAN. ) SOLID_ANGLE_UNIT ( ) );
#37 = DIRECTION ( 'NONE',  ( -3.491481338843133355E-15, 1.224646799147353207E-16, -1.000000000000000000 ) ) ;
#38 = DIRECTION ( 'NONE',  ( -4.275831445896958607E-31, -1.000000000000000000, -1.224646799147353207E-16 ) ) ;
#39 = DATE_AND_TIME ( #44, #54 ) ;
#40 = APPLICATION_PROTOCOL_DEFINITION ( 'international standard', 'config_control_design', 1994, #46 ) ;
#41 = ADVANCED_BREP_SHAPE_REPRESENTATION ( '645', ( #13, #165 ), #33 ) ;
#42 = PERSON_AND_ORGANIZATION_ROLE ( 'design_owner' ) ;
#43 = CC_DESIGN_PERSON_AND_ORGANIZATION_ASSIGNMENT ( #143, #53, ( #57 ) ) ;
#44 = CALENDAR_DATE ( 2021, 6, 12 ) ;
#45 = ORIENTED_EDGE ( 'NONE', *, *, #99, .T. ) ;
#46 = APPLICATION_CONTEXT ( 'configuration controlled 3d designs of mechanical parts and assemblies' ) ;
#47 = CC_DESIGN_PERSON_AND_ORGANIZATION_ASSIGNMENT ( #10, #94, ( #126 ) ) ;
#48 = ADVANCED_FACE ( 'NONE', ( #34, #125 ), #79, .T. ) ;
#49 = MECHANICAL_CONTEXT ( 'NONE', #98, 'mechanical' ) ;
#50 = DIRECTION ( 'NONE',  ( -3.491481338843133355E-15, 1.224646799147353207E-16, -1.000000000000000000 ) ) ;
#51 =( LENGTH_UNIT ( ) NAMED_UNIT ( * ) SI_UNIT ( .MILLI., .METRE. ) );
#52 = VERTEX_POINT ( 'NONE', #104 ) ;
#53 = PERSON_AND_ORGANIZATION_ROLE ( 'creator' ) ;
#54 = LOCAL_TIME ( 14, 0, 4.000000000000000000, #167 ) ;
#55 = PERSON_AND_ORGANIZATION ( #156, #58 ) ;
#56 = SECURITY_CLASSIFICATION ( '', '', #141 ) ;
#57 = PRODUCT_DEFINITION ( 'UNKNOWN', '', #126, #148 ) ;
#58 = ORGANIZATION ( 'UNSPECIFIED', 'UNSPECIFIED', '' ) ;
#59 = DIRECTION ( 'NONE',  ( 4.275831445896958607E-31, 1.000000000000000000, 1.224646799147353207E-16 ) ) ;
#60 = DIRECTION ( 'NONE',  ( -3.491481338843133355E-15, 1.224646799147353207E-16, -1.000000000000000000 ) ) ;
#61 = AXIS2_PLACEMENT_3D ( 'NONE', #105, #8, #116 ) ;
#62 = VERTEX_POINT ( 'NONE', #4 ) ;
#63 = DIRECTION ( 'NONE',  ( -3.491481338843133355E-15, 1.224646799147353207E-16, -1.000000000000000000 ) ) ;
#64 = DIRECTION ( 'NONE',  ( 4.275831445896958607E-31, 1.000000000000000000, 1.224646799147352961E-16 ) ) ;
#65 = AXIS2_PLACEMENT_3D ( 'NONE', #137, #150, #38 ) ;
#66 = EDGE_CURVE ( 'NONE', #161, #161, #69, .T. ) ;
#67 = APPROVAL_STATUS ( 'not_yet_approved' ) ;
#68 = APPROVAL_ROLE ( '' ) ;
#69 = CIRCLE ( 'NONE', #115, 15.00000000000000000 ) ;
#70 = PERSON_AND_ORGANIZATION_ROLE ( 'classification_officer' ) ;
#71 = EDGE_LOOP ( 'NONE', ( #31 ) ) ;
#72 = CC_DESIGN_PERSON_AND_ORGANIZATION_ASSIGNMENT ( #84, #42, ( #5 ) ) ;
#73 = CLOSED_SHELL ( 'NONE', ( #135, #122, #48, #35 ) ) ;
#74 = ORIENTED_EDGE ( 'NONE', *, *, #66, .F. ) ;
#75 = CARTESIAN_POINT ( 'NONE',  ( 0.0000000000000000000, 0.0000000000000000000, 0.0000000000000000000 ) ) ;
#76 = FACE_OUTER_BOUND ( 'NONE', #71, .T. ) ;
#77 = CARTESIAN_POINT ( 'NONE',  ( 0.0000000000000000000, 0.0000000000000000000, 0.0000000000000000000 ) ) ;
#78 = CIRCLE ( 'NONE', #134, 4.000000000000000000 ) ;
#79 = PLANE ( 'NONE',  #65 ) ;
#80 = FACE_OUTER_BOUND ( 'NONE', #88, .T. ) ;
#81 = APPROVAL_DATE_TIME ( #109, #157 ) ;
#82 = PERSON_AND_ORGANIZATION ( #156, #58 ) ;
#83 = DATE_TIME_ROLE ( 'classification_date' ) ;
#84 = PERSON_AND_ORGANIZATION ( #156, #58 ) ;
#85 = AXIS2_PLACEMENT_3D ( 'NONE', #17, #50, #19 ) ;
#86 = APPROVAL ( #67, 'UNSPECIFIED' ) ;
#87 = CIRCLE ( 'NONE', #61, 4.000000000000000000 ) ;
#88 = EDGE_LOOP ( 'NONE', ( #14 ) ) ;
#89 = DIRECTION ( 'NONE',  ( 4.275831445896958607E-31, 1.000000000000000000, 1.224646799147353207E-16 ) ) ;
#90 = DIRECTION ( 'NONE',  ( -3.491481338843133355E-15, 1.224646799147353207E-16, -1.000000000000000000 ) ) ;
#91 = CC_DESIGN_SECURITY_CLASSIFICATION ( #56, ( #126 ) ) ;
#92 =( NAMED_UNIT ( * ) PLANE_ANGLE_UNIT ( ) SI_UNIT ( $, .RADIAN. ) );
#93 = COORDINATED_UNIVERSAL_TIME_OFFSET ( 1, 0, .AHEAD. ) ;
#94 = PERSON_AND_ORGANIZATION_ROLE ( 'creator' ) ;
#95 = DATE_TIME_ROLE ( 'creation_date' ) ;
#96 = APPROVAL_ROLE ( '' ) ;
#97 = EDGE_LOOP ( 'NONE', ( #74 ) ) ;
#98 = APPLICATION_CONTEXT ( 'configuration controlled 3d designs of mechanical parts and assemblies' ) ;
#99 = EDGE_CURVE ( 'NONE', #52, #52, #78, .T. ) ;
#100 = EDGE_LOOP ( 'NONE', ( #136 ) ) ;
#101 = ORIENTED_EDGE ( 'NONE', *, *, #99, .F. ) ;
#102 = APPLICATION_PROTOCOL_DEFINITION ( 'international standard', 'config_control_design', 1994, #98 ) ;
#103 = AXIS2_PLACEMENT_3D ( 'NONE', #77, #63, #138 ) ;
#104 = CARTESIAN_POINT ( 'NONE',  ( 3.421138828918010427E-46, 4.000000000000000000, 0.0000000000000000000 ) ) ;
#105 = CARTESIAN_POINT ( 'NONE',  ( 6.982962677686265133E-15, -2.449293598294705921E-16, 1.999999999999999556 ) ) ;
#106 = LOCAL_TIME ( 14, 0, 4.000000000000000000, #12 ) ;
#107 = PERSON_AND_ORGANIZATION_ROLE ( 'design_supplier' ) ;
#108 = APPROVAL_ROLE ( '' ) ;
#109 = DATE_AND_TIME ( #169, #106 ) ;
#110 = AXIS2_PLACEMENT_3D ( 'NONE', #120, #37, #89 ) ;
#111 = COORDINATED_UNIVERSAL_TIME_OFFSET ( 1, 0, .AHEAD. ) ;
#112 = AXIS2_PLACEMENT_3D ( 'NONE', #18, #114, #64 ) ;
#113 = FACE_BOUND ( 'NONE', #132, .T. ) ;
#114 = DIRECTION ( 'NONE',  ( -3.491481338843133355E-15, 1.224646799147353207E-16, -1.000000000000000000 ) ) ;
#115 = AXIS2_PLACEMENT_3D ( 'NONE', #9, #90, #127 ) ;
#116 = DIRECTION ( 'NONE',  ( 3.851859888774471706E-31, 1.000000000000000000, 1.084202172485504434E-16 ) ) ;
#117 = APPROVAL_DATE_TIME ( #22, #146 ) ;
#118 = CC_DESIGN_PERSON_AND_ORGANIZATION_ASSIGNMENT ( #82, #107, ( #126 ) ) ;
#119 = DATE_AND_TIME ( #164, #26 ) ;
#120 = CARTESIAN_POINT ( 'NONE',  ( 0.0000000000000000000, 0.0000000000000000000, 0.0000000000000000000 ) ) ;
#121 = EDGE_LOOP ( 'NONE', ( #45 ) ) ;
#122 = ADVANCED_FACE ( 'NONE', ( #149, #80 ), #7, .T. ) ;
#123 = DIRECTION ( 'NONE',  ( 0.0000000000000000000, 0.0000000000000000000, 1.000000000000000000 ) ) ;
#124 = EDGE_CURVE ( 'NONE', #151, #151, #147, .T. ) ;
#125 = FACE_OUTER_BOUND ( 'NONE', #97, .T. ) ;
#126 = PRODUCT_DEFINITION_FORMATION_WITH_SPECIFIED_SOURCE ( 'ANY', '', #5, .NOT_KNOWN. ) ;
#127 = DIRECTION ( 'NONE',  ( 4.108650548026103445E-31, 1.000000000000000000, 1.156482317317871478E-16 ) ) ;
#128 = CC_DESIGN_PERSON_AND_ORGANIZATION_ASSIGNMENT ( #155, #70, ( #56 ) ) ;
#129 = SHAPE_DEFINITION_REPRESENTATION ( #139, #41 ) ;
#130 = APPROVAL_DATE_TIME ( #25, #86 ) ;
#131 = COORDINATED_UNIVERSAL_TIME_OFFSET ( 1, 0, .AHEAD. ) ;
#132 = EDGE_LOOP ( 'NONE', ( #101 ) ) ;
#133 = EDGE_LOOP ( 'NONE', ( #2 ) ) ;
#134 = AXIS2_PLACEMENT_3D ( 'NONE', #21, #60, #59 ) ;
#135 = ADVANCED_FACE ( 'NONE', ( #76, #113 ), #6, .T. ) ;
#136 = ORIENTED_EDGE ( 'NONE', *, *, #66, .T. ) ;
#137 = CARTESIAN_POINT ( 'NONE',  ( 6.982962677686263555E-15, 4.000000000000000000, 1.999999999999999112 ) ) ;
#138 = DIRECTION ( 'NONE',  ( 4.275831445896958607E-31, 1.000000000000000000, 1.224646799147352961E-16 ) ) ;
#139 = PRODUCT_DEFINITION_SHAPE ( 'NONE', 'NONE',  #57 ) ;
#140 = CALENDAR_DATE ( 2021, 6, 12 ) ;
#141 = SECURITY_CLASSIFICATION_LEVEL ( 'unclassified' ) ;
#142 = EDGE_CURVE ( 'NONE', #62, #62, #87, .T. ) ;
#143 = PERSON_AND_ORGANIZATION ( #156, #58 ) ;
#144 = ORIENTED_EDGE ( 'NONE', *, *, #142, .T. ) ;
#145 = FACE_OUTER_BOUND ( 'NONE', #121, .T. ) ;
#146 = APPROVAL ( #11, 'UNSPECIFIED' ) ;
#147 = CIRCLE ( 'NONE', #112, 15.00000000000000000 ) ;
#148 = DESIGN_CONTEXT ( 'detailed design', #46, 'design' ) ;
#149 = FACE_OUTER_BOUND ( 'NONE', #100, .T. ) ;
#150 = DIRECTION ( 'NONE',  ( 3.491481338843133355E-15, -1.224646799147353207E-16, 1.000000000000000000 ) ) ;
#151 = VERTEX_POINT ( 'NONE', #32 ) ;
#152 = CALENDAR_DATE ( 2021, 6, 12 ) ;
#153 = CC_DESIGN_DATE_AND_TIME_ASSIGNMENT ( #39, #83, ( #56 ) ) ;
#154 = CC_DESIGN_APPROVAL ( #86, ( #57 ) ) ;
#155 = PERSON_AND_ORGANIZATION ( #156, #58 ) ;
#156 = PERSON ( 'UNSPECIFIED', 'UNSPECIFIED', 'UNSPECIFIED', ('UNSPECIFIED'), ('UNSPECIFIED'), ('UNSPECIFIED') ) ;
#157 = APPROVAL ( #24, 'UNSPECIFIED' ) ;
#158 = APPROVAL_PERSON_ORGANIZATION ( #166, #86, #96 ) ;
#159 = FACE_OUTER_BOUND ( 'NONE', #133, .T. ) ;
#160 = DIRECTION ( 'NONE',  ( 1.000000000000000000, 0.0000000000000000000, 0.0000000000000000000 ) ) ;
#161 = VERTEX_POINT ( 'NONE', #163 ) ;
#162 = PRODUCT_RELATED_PRODUCT_CATEGORY ( 'detail', '', ( #5 ) ) ;
#163 = CARTESIAN_POINT ( 'NONE',  ( 6.982962677686266711E-15, 15.00000000000000000, 2.000000000000000000 ) ) ;
#164 = CALENDAR_DATE ( 2021, 6, 12 ) ;
#165 = AXIS2_PLACEMENT_3D ( 'NONE', #75, #123, #160 ) ;
#166 = PERSON_AND_ORGANIZATION ( #156, #58 ) ;
#167 = COORDINATED_UNIVERSAL_TIME_OFFSET ( 1, 0, .AHEAD. ) ;
#168 = APPROVAL_PERSON_ORGANIZATION ( #23, #146, #68 ) ;
#169 = CALENDAR_DATE ( 2021, 6, 12 ) ;
ENDSEC;
END-ISO-10303-21;
