ISO-10303-21;
HEADER;
FILE_DESCRIPTION (( 'STEP AP203' ),
    '1' );
FILE_NAME ('64419.step',
    '2021-10-13T11:36:30',
    ( '' ),
    ( '' ),
    'SwSTEP 2.0',
    'SolidWorks 2019',
    '' );
FILE_SCHEMA (( 'CONFIG_CONTROL_DESIGN' ));
ENDSEC;

DATA;
#1 = CARTESIAN_POINT ( 'NONE',  ( 7.157536744628422747E-14, -8.870708329312822908E-15, 20.49999999999999645 ) ) ;
#2 = CALENDAR_DATE ( 2021, 13, 10 ) ;
#3 = CIRCLE ( 'NONE', #163, 1.587500000000003020 ) ;
#4 = FACE_OUTER_BOUND ( 'NONE', #113, .T. ) ;
#5 = PERSON_AND_ORGANIZATION_ROLE ( 'design_supplier' ) ;
#6 = VERTEX_POINT ( 'NONE', #94 ) ;
#7 = APPROVAL_STATUS ( 'not_yet_approved' ) ;
#8 = CLOSED_SHELL ( 'NONE', ( #170, #262, #63 ) ) ;
#9 = AXIS2_PLACEMENT_3D ( 'NONE', #195, #261, #160 ) ;
#10 = CC_DESIGN_PERSON_AND_ORGANIZATION_ASSIGNMENT ( #260, #75, ( #202 ) ) ;
#11 = ORIENTED_EDGE ( 'NONE', *, *, #111, .F. ) ;
#12 = ORIENTED_EDGE ( 'NONE', *, *, #253, .T. ) ;
#13 =( LENGTH_UNIT ( ) NAMED_UNIT ( * ) SI_UNIT ( .MILLI., .METRE. ) );
#14 = CC_DESIGN_PERSON_AND_ORGANIZATION_ASSIGNMENT ( #199, #47, ( #66 ) ) ;
#15 = DIRECTION ( 'NONE',  ( -4.275831445896958607E-31, -1.000000000000000000, -1.224646799147353207E-16 ) ) ;
#16 = CARTESIAN_POINT ( 'NONE',  ( 4.888073874380386697E-14, 2.249639673992777927E-32, 14.00000000000000000 ) ) ;
#17 = APPLICATION_CONTEXT ( 'configuration controlled 3d designs of mechanical parts and assemblies' ) ;
#18 = FACE_OUTER_BOUND ( 'NONE', #242, .T. ) ;
#19 = PRODUCT_DEFINITION_SHAPE ( 'NONE', 'NONE',  #66 ) ;
#20 = ADVANCED_FACE ( 'NONE', ( #223, #18 ), #176, .F. ) ;
#21 = DIRECTION ( 'NONE',  ( 0.0000000000000000000, 1.000000000000000000, 0.0000000000000000000 ) ) ;
#22 = AXIS2_PLACEMENT_3D ( 'NONE', #212, #229, #48 ) ;
#23 = DATE_AND_TIME ( #174, #216 ) ;
#24 = CARTESIAN_POINT ( 'NONE',  ( 6.982962677686266711E-14, -8.654349589573485764E-15, 20.00000000000000000 ) ) ;
#25 = APPROVAL_ROLE ( '' ) ;
#26 = VERTEX_POINT ( 'NONE', #156 ) ;
#27 = DIRECTION ( 'NONE',  ( 0.0000000000000000000, 0.0000000000000000000, 1.000000000000000000 ) ) ;
#28 = DIRECTION ( 'NONE',  ( 1.510825004591027855E-30, 1.000000000000000000, 4.327174794786742389E-16 ) ) ;
#29 = AXIS2_PLACEMENT_3D ( 'NONE', #45, #152, #153 ) ;
#30 = APPROVAL_STATUS ( 'not_yet_approved' ) ;
#31 = DIRECTION ( 'NONE',  ( 4.275831445896959482E-31, 1.000000000000000000, 1.224646799147353207E-16 ) ) ;
#32 = APPLICATION_PROTOCOL_DEFINITION ( 'international standard', 'config_control_design', 1994, #150 ) ;
#33 = ORIENTED_EDGE ( 'NONE', *, *, #253, .F. ) ;
#34 = AXIS2_PLACEMENT_3D ( 'NONE', #1, #103, #110 ) ;
#35 = EDGE_LOOP ( 'NONE', ( #116 ) ) ;
#36 = PERSON_AND_ORGANIZATION ( #78, #102 ) ;
#37 = CARTESIAN_POINT ( 'NONE',  ( 4.888073874380386697E-14, -6.058044712701440824E-15, 14.00000000000000000 ) ) ;
#38 = CC_DESIGN_APPROVAL ( #161, ( #66 ) ) ;
#39 = DIRECTION ( 'NONE',  ( 0.0000000000000000000, -1.000000000000000000, 0.0000000000000000000 ) ) ;
#40 = APPROVAL_ROLE ( '' ) ;
#41 = FACE_OUTER_BOUND ( 'NONE', #60, .T. ) ;
#42 = EDGE_CURVE ( 'NONE', #132, #132, #167, .T. ) ;
#43 = EDGE_LOOP ( 'NONE', ( #12 ) ) ;
#44 = APPROVAL_DATE_TIME ( #23, #222 ) ;
#45 = CARTESIAN_POINT ( 'NONE',  ( 7.930715147197773289E-14, -9.828948620690156214E-15, 22.71447095812213490 ) ) ;
#46 = CYLINDRICAL_SURFACE ( 'NONE', #55, 2.999999999999994671 ) ;
#47 = PERSON_AND_ORGANIZATION_ROLE ( 'creator' ) ;
#48 = DIRECTION ( 'NONE',  ( 0.0000000000000000000, 1.000000000000000000, 0.0000000000000000000 ) ) ;
#49 = FACE_OUTER_BOUND ( 'NONE', #122, .T. ) ;
#50 = AXIS2_PLACEMENT_3D ( 'NONE', #16, #255, #99 ) ;
#51 = AXIS2_PLACEMENT_3D ( 'NONE', #248, #211, #225 ) ;
#52 = CARTESIAN_POINT ( 'NONE',  ( 2.164718430082742680E-13, 2.299999999999990941, 62.00000000000000000 ) ) ;
#53 = ADVANCED_FACE ( 'NONE', ( #65, #64 ), #258, .T. ) ;
#54 = AXIS2_PLACEMENT_3D ( 'NONE', #257, #243, #171 ) ;
#55 = AXIS2_PLACEMENT_3D ( 'NONE', #73, #198, #31 ) ;
#56 = EDGE_CURVE ( 'NONE', #112, #112, #67, .T. ) ;
#57 = APPLICATION_PROTOCOL_DEFINITION ( 'international standard', 'config_control_design', 1994, #17 ) ;
#58 = EDGE_LOOP ( 'NONE', ( #252 ) ) ;
#59 = DATE_AND_TIME ( #141, #119 ) ;
#60 = EDGE_LOOP ( 'NONE', ( #240 ) ) ;
#61 = PLANE ( 'NONE',  #117 ) ;
#62 = CIRCLE ( 'NONE', #77, 2.999999999999997780 ) ;
#63 = ADVANCED_FACE ( 'NONE', ( #41 ), #61, .T. ) ;
#64 = FACE_OUTER_BOUND ( 'NONE', #164, .T. ) ;
#65 = FACE_BOUND ( 'NONE', #139, .T. ) ;
#66 = PRODUCT_DEFINITION ( 'UNKNOWN', '', #202, #182 ) ;
#67 = CIRCLE ( 'NONE', #214, 1.587500000000003020 ) ;
#68 = CC_DESIGN_SECURITY_CLASSIFICATION ( #126, ( #202 ) ) ;
#69 = COORDINATED_UNIVERSAL_TIME_OFFSET ( 1, 0, .AHEAD. ) ;
#70 = CARTESIAN_POINT ( 'NONE',  ( 3.812385842504465711E-15, -1.337204947137064437E-16, 1.091910702798618127 ) ) ;
#71 = DIRECTION ( 'NONE',  ( 4.275831445896958607E-31, 1.000000000000000000, 1.224646799147353207E-16 ) ) ;
#72 = CC_DESIGN_DATE_AND_TIME_ASSIGNMENT ( #159, #105, ( #126 ) ) ;
#73 = CARTESIAN_POINT ( 'NONE',  ( 0.0000000000000000000, 0.0000000000000000000, 0.0000000000000000000 ) ) ;
#74 = FACE_BOUND ( 'NONE', #239, .T. ) ;
#75 = PERSON_AND_ORGANIZATION_ROLE ( 'creator' ) ;
#76 = VERTEX_POINT ( 'NONE', #135 ) ;
#77 = AXIS2_PLACEMENT_3D ( 'NONE', #145, #247, #21 ) ;
#78 = PERSON ( 'UNSPECIFIED', 'UNSPECIFIED', 'UNSPECIFIED', ('UNSPECIFIED'), ('UNSPECIFIED'), ('UNSPECIFIED') ) ;
#79 = EDGE_LOOP ( 'NONE', ( #33 ) ) ;
#80 = LOCAL_TIME ( 13, 36, 30.00000000000000000, #69 ) ;
#81 = CARTESIAN_POINT ( 'NONE',  ( 4.888073874380386697E-14, -6.058044712701440824E-15, 14.00000000000000000 ) ) ;
#82 = APPROVAL ( #30, 'UNSPECIFIED' ) ;
#83 = CARTESIAN_POINT ( 'NONE',  ( 2.164718430082742680E-13, -7.592810154713590230E-15, 62.00000000000000000 ) ) ;
#84 = DIRECTION ( 'NONE',  ( 0.0000000000000000000, 1.000000000000000000, 0.0000000000000000000 ) ) ;
#85 = APPROVAL_PERSON_ORGANIZATION ( #194, #82, #263 ) ;
#86 = PERSON_AND_ORGANIZATION ( #78, #102 ) ;
#87 = VERTEX_POINT ( 'NONE', #173 ) ;
#88 = FACE_OUTER_BOUND ( 'NONE', #43, .T. ) ;
#89 = FACE_OUTER_BOUND ( 'NONE', #35, .T. ) ;
#90 = COORDINATED_UNIVERSAL_TIME_OFFSET ( 1, 0, .AHEAD. ) ;
#91 = CIRCLE ( 'NONE', #234, 1.587500000000006128 ) ;
#92 = FACE_OUTER_BOUND ( 'NONE', #220, .T. ) ;
#93 = PERSON_AND_ORGANIZATION ( #78, #102 ) ;
#94 = CARTESIAN_POINT ( 'NONE',  ( 7.157536744628422747E-14, 1.721474596215558650, 20.49999999999999645 ) ) ;
#95 = AXIS2_PLACEMENT_3D ( 'NONE', #217, #27, #125 ) ;
#96 = ADVANCED_FACE ( 'NONE', ( #98 ), #184, .F. ) ;
#97 = CIRCLE ( 'NONE', #34, 1.721474596215567532 ) ;
#98 = FACE_OUTER_BOUND ( 'NONE', #58, .T. ) ;
#99 = DIRECTION ( 'NONE',  ( -4.275831445896958607E-31, -1.000000000000000000, -1.224646799147353207E-16 ) ) ;
#100 = COORDINATED_UNIVERSAL_TIME_OFFSET ( 1, 0, .AHEAD. ) ;
#101 = EDGE_LOOP ( 'NONE', ( #203 ) ) ;
#102 = ORGANIZATION ( 'UNSPECIFIED', 'UNSPECIFIED', '' ) ;
#103 = DIRECTION ( 'NONE',  ( -3.491481338843133355E-15, 4.327174794786742882E-16, -1.000000000000000000 ) ) ;
#104 = AXIS2_PLACEMENT_3D ( 'NONE', #233, #213, #28 ) ;
#105 = DATE_TIME_ROLE ( 'classification_date' ) ;
#106 = CARTESIAN_POINT ( 'NONE',  ( 4.888073874380386697E-14, -1.587500000000009015, 14.00000000000000000 ) ) ;
#107 = COORDINATED_UNIVERSAL_TIME_OFFSET ( 1, 0, .AHEAD. ) ;
#108 = DIRECTION ( 'NONE',  ( -3.491481338843133355E-15, 4.327174794786742882E-16, -1.000000000000000000 ) ) ;
#109 = CALENDAR_DATE ( 2021, 13, 10 ) ;
#110 = DIRECTION ( 'NONE',  ( 0.0000000000000000000, 1.000000000000000000, 0.0000000000000000000 ) ) ;
#111 = EDGE_CURVE ( 'NONE', #26, #26, #3, .T. ) ;
#112 = VERTEX_POINT ( 'NONE', #106 ) ;
#113 = EDGE_LOOP ( 'NONE', ( #136 ) ) ;
#114 = CC_DESIGN_PERSON_AND_ORGANIZATION_ASSIGNMENT ( #227, #133, ( #115 ) ) ;
#115 = PRODUCT ( '64419', '64419', '', ( #251 ) ) ;
#116 = ORIENTED_EDGE ( 'NONE', *, *, #118, .F. ) ;
#117 = AXIS2_PLACEMENT_3D ( 'NONE', #120, #204, #15 ) ;
#118 = EDGE_CURVE ( 'NONE', #226, #226, #62, .T. ) ;
#119 = LOCAL_TIME ( 13, 36, 30.00000000000000000, #90 ) ;
#120 = CARTESIAN_POINT ( 'NONE',  ( 4.888073874380386697E-14, 2.249639673992777927E-32, 14.00000000000000000 ) ) ;
#121 = DIRECTION ( 'NONE',  ( 0.0000000000000000000, -1.000000000000000000, 0.0000000000000000000 ) ) ;
#122 = EDGE_LOOP ( 'NONE', ( #140 ) ) ;
#123 = EDGE_CURVE ( 'NONE', #6, #6, #97, .T. ) ;
#124 = FACE_OUTER_BOUND ( 'NONE', #235, .T. ) ;
#125 = DIRECTION ( 'NONE',  ( 1.000000000000000000, 0.0000000000000000000, 0.0000000000000000000 ) ) ;
#126 = SECURITY_CLASSIFICATION ( '', '', #246 ) ;
#127 = CYLINDRICAL_SURFACE ( 'NONE', #104, 1.587500000000003020 ) ;
#128 = FACE_OUTER_BOUND ( 'NONE', #219, .T. ) ;
#129 = APPROVAL_DATE_TIME ( #196, #161 ) ;
#130 = CC_DESIGN_DATE_AND_TIME_ASSIGNMENT ( #59, #254, ( #66 ) ) ;
#131 = DATE_AND_TIME ( #232, #80 ) ;
#132 = VERTEX_POINT ( 'NONE', #52 ) ;
#133 = PERSON_AND_ORGANIZATION_ROLE ( 'design_owner' ) ;
#134 = CC_DESIGN_APPROVAL ( #222, ( #202 ) ) ;
#135 = CARTESIAN_POINT ( 'NONE',  ( 7.930715147197773289E-14, -3.000000000000004885, 22.71447095812213490 ) ) ;
#136 = ORIENTED_EDGE ( 'NONE', *, *, #56, .T. ) ;
#137 = ADVANCED_FACE ( 'NONE', ( #88, #193 ), #249, .T. ) ;
#138 = CLOSED_SHELL ( 'NONE', ( #206, #180, #172, #137, #53, #20, #96 ) ) ;
#139 = EDGE_LOOP ( 'NONE', ( #183 ) ) ;
#140 = ORIENTED_EDGE ( 'NONE', *, *, #42, .F. ) ;
#141 = CALENDAR_DATE ( 2021, 13, 10 ) ;
#142 = PRODUCT_RELATED_PRODUCT_CATEGORY ( 'detail', '', ( #115 ) ) ;
#143 = ORIENTED_EDGE ( 'NONE', *, *, #201, .F. ) ;
#144 = CONICAL_SURFACE ( 'NONE', #181, 2.999999999999990674, 1.221730476396026388 ) ;
#145 = CARTESIAN_POINT ( 'NONE',  ( 2.140278060710840431E-13, -7.507084878773274364E-15, 61.29999999999999005 ) ) ;
#146 = CARTESIAN_POINT ( 'NONE',  ( 8.233086300825524984E-14, -1.020369295058026657E-14, 23.58049636190658660 ) ) ;
#147 = DIRECTION ( 'NONE',  ( 3.491481338843133355E-15, -4.327174794786742882E-16, 1.000000000000000000 ) ) ;
#148 = CC_DESIGN_PERSON_AND_ORGANIZATION_ASSIGNMENT ( #86, #192, ( #126 ) ) ;
#149 = CONICAL_SURFACE ( 'NONE', #22, 2.299999999999998490, 0.7853981633974433940 ) ;
#150 = APPLICATION_CONTEXT ( 'configuration controlled 3d designs of mechanical parts and assemblies' ) ;
#151 = APPROVAL_DATE_TIME ( #131, #82 ) ;
#152 = DIRECTION ( 'NONE',  ( 3.491481338843133355E-15, -4.327174794786742882E-16, 1.000000000000000000 ) ) ;
#153 = DIRECTION ( 'NONE',  ( 0.0000000000000000000, -1.000000000000000000, 0.0000000000000000000 ) ) ;
#154 = ADVANCED_BREP_SHAPE_REPRESENTATION ( '64419', ( #190, #188, #95 ), #210 ) ;
#155 = COORDINATED_UNIVERSAL_TIME_OFFSET ( 1, 0, .AHEAD. ) ;
#156 = CARTESIAN_POINT ( 'NONE',  ( 4.888073874380386697E-14, -1.587500000000009015, 14.00000000000000000 ) ) ;
#157 = PERSON_AND_ORGANIZATION ( #78, #102 ) ;
#158 = FACE_OUTER_BOUND ( 'NONE', #101, .T. ) ;
#159 = DATE_AND_TIME ( #109, #256 ) ;
#160 = DIRECTION ( 'NONE',  ( -4.852736867747356433E-31, -1.000000000000000000, -1.365923996832128898E-16 ) ) ;
#161 = APPROVAL ( #7, 'UNSPECIFIED' ) ;
#162 = ORIENTED_EDGE ( 'NONE', *, *, #201, .T. ) ;
#163 = AXIS2_PLACEMENT_3D ( 'NONE', #81, #166, #186 ) ;
#164 = EDGE_LOOP ( 'NONE', ( #165 ) ) ;
#165 = ORIENTED_EDGE ( 'NONE', *, *, #237, .F. ) ;
#166 = DIRECTION ( 'NONE',  ( -3.491481338843133355E-15, 1.224646799147353207E-16, -1.000000000000000000 ) ) ;
#167 = CIRCLE ( 'NONE', #209, 2.299999999999998490 ) ;
#168 = CC_DESIGN_APPROVAL ( #82, ( #126 ) ) ;
#169 = DIRECTION ( 'NONE',  ( -3.491481338843133355E-15, 1.224646799147353207E-16, -1.000000000000000000 ) ) ;
#170 = ADVANCED_FACE ( 'NONE', ( #92 ), #144, .T. ) ;
#171 = DIRECTION ( 'NONE',  ( 1.510825004591027855E-30, 1.000000000000000000, 4.327174794786742882E-16 ) ) ;
#172 = ADVANCED_FACE ( 'NONE', ( #49 ), #179, .F. ) ;
#173 = CARTESIAN_POINT ( 'NONE',  ( 6.982962677686266711E-14, 1.587499999999997469, 20.00000000000000000 ) ) ;
#174 = CALENDAR_DATE ( 2021, 13, 10 ) ;
#175 = DIRECTION ( 'NONE',  ( 3.491481338843133355E-15, -1.224646799147353207E-16, 1.000000000000000000 ) ) ;
#176 = TOROIDAL_SURFACE ( 'NONE', #54, 2.587500000000006573, 1.000000000000000666 ) ;
#177 = CARTESIAN_POINT ( 'NONE',  ( 2.164718430082742680E-13, 1.724723750061123386E-32, 62.00000000000000000 ) ) ;
#178 = AXIS2_PLACEMENT_3D ( 'NONE', #177, #197, #71 ) ;
#179 = PLANE ( 'NONE',  #178 ) ;
#180 = ADVANCED_FACE ( 'NONE', ( #89, #74 ), #149, .T. ) ;
#181 = AXIS2_PLACEMENT_3D ( 'NONE', #70, #175, #215 ) ;
#182 = DESIGN_CONTEXT ( 'detailed design', #150, 'design' ) ;
#183 = ORIENTED_EDGE ( 'NONE', *, *, #123, .F. ) ;
#184 = PLANE ( 'NONE',  #50 ) ;
#185 = APPROVAL_STATUS ( 'not_yet_approved' ) ;
#186 = DIRECTION ( 'NONE',  ( 0.0000000000000000000, -1.000000000000000000, 0.0000000000000000000 ) ) ;
#187 = ORIENTED_EDGE ( 'NONE', *, *, #237, .T. ) ;
#188 = MANIFOLD_SOLID_BREP ( 'Corps-Déplacer/Copier1[2]', #8 ) ;
#189 = CC_DESIGN_PERSON_AND_ORGANIZATION_ASSIGNMENT ( #93, #5, ( #202 ) ) ;
#190 = MANIFOLD_SOLID_BREP ( 'Corps-Déplacer/Copier1[1]', #138 ) ;
#191 = APPROVAL_PERSON_ORGANIZATION ( #36, #222, #40 ) ;
#192 = PERSON_AND_ORGANIZATION_ROLE ( 'classification_officer' ) ;
#193 = FACE_OUTER_BOUND ( 'NONE', #236, .T. ) ;
#194 = PERSON_AND_ORGANIZATION ( #78, #102 ) ;
#195 = CARTESIAN_POINT ( 'NONE',  ( 2.017387508325289994E-15, -7.076042845267001640E-17, 0.5778027468976049130 ) ) ;
#196 = DATE_AND_TIME ( #2, #241 ) ;
#197 = DIRECTION ( 'NONE',  ( -3.491481338843133355E-15, 1.224646799147353207E-16, -1.000000000000000000 ) ) ;
#198 = DIRECTION ( 'NONE',  ( -3.491481338843133355E-15, 1.224646799147353207E-16, -1.000000000000000000 ) ) ;
#199 = PERSON_AND_ORGANIZATION ( #78, #102 ) ;
#200 = CARTESIAN_POINT ( 'NONE',  ( 2.140278060710840431E-13, 2.999999999999990674, 61.29999999999999005 ) ) ;
#201 = EDGE_CURVE ( 'NONE', #250, #250, #221, .T. ) ;
#202 = PRODUCT_DEFINITION_FORMATION_WITH_SPECIFIED_SOURCE ( 'ANY', '', #115, .NOT_KNOWN. ) ;
#203 = ORIENTED_EDGE ( 'NONE', *, *, #118, .T. ) ;
#204 = DIRECTION ( 'NONE',  ( 3.491481338843133355E-15, -1.224646799147353207E-16, 1.000000000000000000 ) ) ;
#205 = UNCERTAINTY_MEASURE_WITH_UNIT (LENGTH_MEASURE( 1.000000000000000082E-05 ), #13, 'distance_accuracy_value', 'NONE');
#206 = ADVANCED_FACE ( 'NONE', ( #124, #158 ), #46, .T. ) ;
#207 =( NAMED_UNIT ( * ) PLANE_ANGLE_UNIT ( ) SI_UNIT ( $, .RADIAN. ) );
#208 = ORIENTED_EDGE ( 'NONE', *, *, #123, .T. ) ;
#209 = AXIS2_PLACEMENT_3D ( 'NONE', #83, #169, #84 ) ;
#210 =( GEOMETRIC_REPRESENTATION_CONTEXT ( 3 ) GLOBAL_UNCERTAINTY_ASSIGNED_CONTEXT ( ( #205 ) ) GLOBAL_UNIT_ASSIGNED_CONTEXT ( ( #13, #207, #259 ) ) REPRESENTATION_CONTEXT ( 'NONE', 'WORKASPACE' ) );
#211 = DIRECTION ( 'NONE',  ( -3.491481338843133355E-15, 4.327174794786742882E-16, -1.000000000000000000 ) ) ;
#212 = CARTESIAN_POINT ( 'NONE',  ( 2.164718430082742680E-13, -7.592810154713590230E-15, 62.00000000000000000 ) ) ;
#213 = DIRECTION ( 'NONE',  ( -3.491481338843133355E-15, 4.327174794786742882E-16, -1.000000000000000000 ) ) ;
#214 = AXIS2_PLACEMENT_3D ( 'NONE', #37, #224, #121 ) ;
#215 = DIRECTION ( 'NONE',  ( -5.135813185032645290E-31, -1.000000000000000000, -1.445602896647343847E-16 ) ) ;
#216 = LOCAL_TIME ( 13, 36, 30.00000000000000000, #100 ) ;
#217 = CARTESIAN_POINT ( 'NONE',  ( 0.0000000000000000000, 0.0000000000000000000, 0.0000000000000000000 ) ) ;
#218 = ORIENTED_EDGE ( 'NONE', *, *, #42, .T. ) ;
#219 = EDGE_LOOP ( 'NONE', ( #143 ) ) ;
#220 = EDGE_LOOP ( 'NONE', ( #162 ) ) ;
#221 = CIRCLE ( 'NONE', #9, 1.587500000000003020 ) ;
#222 = APPROVAL ( #185, 'UNSPECIFIED' ) ;
#223 = FACE_OUTER_BOUND ( 'NONE', #79, .T. ) ;
#224 = DIRECTION ( 'NONE',  ( -3.491481338843133355E-15, 1.224646799147353207E-16, -1.000000000000000000 ) ) ;
#225 = DIRECTION ( 'NONE',  ( 1.510825004591027855E-30, 1.000000000000000000, 4.327174794786742389E-16 ) ) ;
#226 = VERTEX_POINT ( 'NONE', #200 ) ;
#227 = PERSON_AND_ORGANIZATION ( #78, #102 ) ;
#228 = SHAPE_DEFINITION_REPRESENTATION ( #19, #154 ) ;
#229 = DIRECTION ( 'NONE',  ( -3.491481338843133355E-15, 1.224646799147353207E-16, -1.000000000000000000 ) ) ;
#230 = DIRECTION ( 'NONE',  ( 0.0000000000000000000, 1.000000000000000000, 0.0000000000000000000 ) ) ;
#231 = AXIS2_PLACEMENT_3D ( 'NONE', #146, #147, #39 ) ;
#232 = CALENDAR_DATE ( 2021, 13, 10 ) ;
#233 = CARTESIAN_POINT ( 'NONE',  ( 0.0000000000000000000, 0.0000000000000000000, 0.0000000000000000000 ) ) ;
#234 = AXIS2_PLACEMENT_3D ( 'NONE', #24, #108, #230 ) ;
#235 = EDGE_LOOP ( 'NONE', ( #187 ) ) ;
#236 = EDGE_LOOP ( 'NONE', ( #11 ) ) ;
#237 = EDGE_CURVE ( 'NONE', #76, #76, #244, .T. ) ;
#238 = APPROVAL_PERSON_ORGANIZATION ( #157, #161, #25 ) ;
#239 = EDGE_LOOP ( 'NONE', ( #218 ) ) ;
#240 = ORIENTED_EDGE ( 'NONE', *, *, #56, .F. ) ;
#241 = LOCAL_TIME ( 13, 36, 30.00000000000000000, #107 ) ;
#242 = EDGE_LOOP ( 'NONE', ( #208 ) ) ;
#243 = DIRECTION ( 'NONE',  ( -3.491481338843133355E-15, 4.327174794786742882E-16, -1.000000000000000000 ) ) ;
#244 = CIRCLE ( 'NONE', #29, 2.999999999999994671 ) ;
#245 = CARTESIAN_POINT ( 'NONE',  ( 2.017387508325289205E-15, -1.587500000000003020, 0.5778027468976046910 ) ) ;
#246 = SECURITY_CLASSIFICATION_LEVEL ( 'unclassified' ) ;
#247 = DIRECTION ( 'NONE',  ( -3.491481338843133355E-15, 1.224646799147353207E-16, -1.000000000000000000 ) ) ;
#248 = CARTESIAN_POINT ( 'NONE',  ( 0.0000000000000000000, 0.0000000000000000000, 0.0000000000000000000 ) ) ;
#249 = CYLINDRICAL_SURFACE ( 'NONE', #51, 1.587500000000003020 ) ;
#250 = VERTEX_POINT ( 'NONE', #245 ) ;
#251 = MECHANICAL_CONTEXT ( 'NONE', #17, 'mechanical' ) ;
#252 = ORIENTED_EDGE ( 'NONE', *, *, #111, .T. ) ;
#253 = EDGE_CURVE ( 'NONE', #87, #87, #91, .T. ) ;
#254 = DATE_TIME_ROLE ( 'creation_date' ) ;
#255 = DIRECTION ( 'NONE',  ( 3.491481338843133355E-15, -1.224646799147353207E-16, 1.000000000000000000 ) ) ;
#256 = LOCAL_TIME ( 13, 36, 30.00000000000000000, #155 ) ;
#257 = CARTESIAN_POINT ( 'NONE',  ( 6.982962677686265448E-14, -8.673617379884035472E-15, 19.99999999999999645 ) ) ;
#258 = CONICAL_SURFACE ( 'NONE', #231, 3.500000000000005329, 0.5235987755983001479 ) ;
#259 =( NAMED_UNIT ( * ) SI_UNIT ( $, .STERADIAN. ) SOLID_ANGLE_UNIT ( ) );
#260 = PERSON_AND_ORGANIZATION ( #78, #102 ) ;
#261 = DIRECTION ( 'NONE',  ( -3.491481338843133355E-15, 1.224646799147353207E-16, -1.000000000000000000 ) ) ;
#262 = ADVANCED_FACE ( 'NONE', ( #4, #128 ), #127, .T. ) ;
#263 = APPROVAL_ROLE ( '' ) ;
ENDSEC;
END-ISO-10303-21;
