ISO-10303-21;
HEADER;
FILE_DESCRIPTION (( 'STEP AP203' ),
    '1' );
FILE_NAME ('64398.step',
    '2021-11-10T07:14:42',
    ( '' ),
    ( '' ),
    'SwSTEP 2.0',
    'SolidWorks 2019',
    '' );
FILE_SCHEMA (( 'CONFIG_CONTROL_DESIGN' ));
ENDSEC;

DATA;
#1 = APPROVAL_DATE_TIME ( #14, #141 ) ;
#2 = CC_DESIGN_PERSON_AND_ORGANIZATION_ASSIGNMENT ( #90, #155, ( #25 ) ) ;
#3 = FACE_OUTER_BOUND ( 'NONE', #40, .T. ) ;
#4 = EDGE_CURVE ( 'NONE', #137, #137, #68, .T. ) ;
#5 = EDGE_LOOP ( 'NONE', ( #177 ) ) ;
#6 = AXIS2_PLACEMENT_3D ( 'NONE', #95, #158, #133 ) ;
#7 = ADVANCED_FACE ( 'NONE', ( #41, #191 ), #201, .T. ) ;
#8 = FACE_OUTER_BOUND ( 'NONE', #21, .T. ) ;
#9 = CARTESIAN_POINT ( 'NONE',  ( 1.920314736363723030E-14, 0.0000000000000000000, 5.499999999999999112 ) ) ;
#10 = PLANE ( 'NONE',  #190 ) ;
#11 = VERTEX_POINT ( 'NONE', #87 ) ;
#12 = DIRECTION ( 'NONE',  ( -3.491481338843133355E-15, 1.224646799147353207E-16, -1.000000000000000000 ) ) ;
#13 = APPROVAL_PERSON_ORGANIZATION ( #73, #141, #51 ) ;
#14 = DATE_AND_TIME ( #207, #91 ) ;
#15 = ADVANCED_FACE ( 'NONE', ( #8, #3 ), #78, .F. ) ;
#16 = CALENDAR_DATE ( 2021, 10, 11 ) ;
#17 = DATE_AND_TIME ( #125, #217 ) ;
#18 = CC_DESIGN_PERSON_AND_ORGANIZATION_ASSIGNMENT ( #169, #189, ( #111 ) ) ;
#19 = APPROVAL_ROLE ( '' ) ;
#20 = APPROVAL_DATE_TIME ( #221, #29 ) ;
#21 = EDGE_LOOP ( 'NONE', ( #173 ) ) ;
#22 = CIRCLE ( 'NONE', #179, 2.500000000000001776 ) ;
#23 = CARTESIAN_POINT ( 'NONE',  ( 1.745740669421566678E-13, -6.123233995736766085E-15, 50.00000000000000000 ) ) ;
#24 = ADVANCED_FACE ( 'NONE', ( #77 ), #60, .F. ) ;
#25 = PRODUCT_DEFINITION_FORMATION_WITH_SPECIFIED_SOURCE ( 'ANY', '', #111, .NOT_KNOWN. ) ;
#26 = CARTESIAN_POINT ( 'NONE',  ( 1.728283262727351074E-13, -6.062001655779398511E-15, 49.50000000000000000 ) ) ;
#27 = DIRECTION ( 'NONE',  ( 1.000000000000000000, 0.0000000000000000000, -3.491481338843133355E-15 ) ) ;
#28 = DIRECTION ( 'NONE',  ( 3.491481338843133355E-15, -0.0000000000000000000, 1.000000000000000000 ) ) ;
#29 = APPROVAL ( #156, 'UNSPECIFIED' ) ;
#30 = CARTESIAN_POINT ( 'NONE',  ( 2.750000000000000000, 0.0000000000000000000, -9.601573681818616727E-15 ) ) ;
#31 = COORDINATED_UNIVERSAL_TIME_OFFSET ( 1, 0, .AHEAD. ) ;
#32 = CIRCLE ( 'NONE', #174, 2.749999999999999112 ) ;
#33 = APPROVAL_STATUS ( 'not_yet_approved' ) ;
#34 = APPROVAL_ROLE ( '' ) ;
#35 = CC_DESIGN_APPROVAL ( #204, ( #25 ) ) ;
#36 = CARTESIAN_POINT ( 'NONE',  ( 0.0000000000000000000, 0.0000000000000000000, 0.0000000000000000000 ) ) ;
#37 = DIRECTION ( 'NONE',  ( 3.491481338843133355E-15, -0.0000000000000000000, 1.000000000000000000 ) ) ;
#38 = EDGE_LOOP ( 'NONE', ( #56 ) ) ;
#39 = EDGE_LOOP ( 'NONE', ( #59 ) ) ;
#40 = EDGE_LOOP ( 'NONE', ( #132 ) ) ;
#41 = FACE_OUTER_BOUND ( 'NONE', #147, .T. ) ;
#42 = CARTESIAN_POINT ( 'NONE',  ( 1.745740669421566678E-13, -6.123233995736766085E-15, 50.00000000000000000 ) ) ;
#43 = CC_DESIGN_PERSON_AND_ORGANIZATION_ASSIGNMENT ( #48, #154, ( #153 ) ) ;
#44 = DIRECTION ( 'NONE',  ( 1.000000000000000000, 0.0000000000000000000, -3.469446951953615372E-15 ) ) ;
#45 = UNCERTAINTY_MEASURE_WITH_UNIT (LENGTH_MEASURE( 1.000000000000000082E-05 ), #140, 'distance_accuracy_value', 'NONE');
#46 = FACE_OUTER_BOUND ( 'NONE', #38, .T. ) ;
#47 = PERSON_AND_ORGANIZATION ( #130, #99 ) ;
#48 = PERSON_AND_ORGANIZATION ( #130, #99 ) ;
#49 = AXIS2_PLACEMENT_3D ( 'NONE', #128, #37, #114 ) ;
#50 = COORDINATED_UNIVERSAL_TIME_OFFSET ( 1, 0, .AHEAD. ) ;
#51 = APPROVAL_ROLE ( '' ) ;
#52 = PRODUCT_DEFINITION ( 'UNKNOWN', '', #25, #85 ) ;
#53 = AXIS2_PLACEMENT_3D ( 'NONE', #197, #184, #65 ) ;
#54 = EDGE_CURVE ( 'NONE', #103, #103, #71, .T. ) ;
#55 = DIRECTION ( 'NONE',  ( -3.491481338843133355E-15, 0.0000000000000000000, -1.000000000000000000 ) ) ;
#56 = ORIENTED_EDGE ( 'NONE', *, *, #54, .F. ) ;
#57 = LOCAL_TIME ( 8, 14, 42.00000000000000000, #220 ) ;
#58 = EDGE_CURVE ( 'NONE', #83, #83, #84, .T. ) ;
#59 = ORIENTED_EDGE ( 'NONE', *, *, #4, .F. ) ;
#60 = PLANE ( 'NONE',  #193 ) ;
#61 = DIRECTION ( 'NONE',  ( 1.000000000000000000, 0.0000000000000000000, -3.469446951953615372E-15 ) ) ;
#62 = DIRECTION ( 'NONE',  ( 3.491481338843133355E-15, -1.224646799147353207E-16, 1.000000000000000000 ) ) ;
#63 = AXIS2_PLACEMENT_3D ( 'NONE', #23, #115, #98 ) ;
#64 = FACE_OUTER_BOUND ( 'NONE', #211, .T. ) ;
#65 = DIRECTION ( 'NONE',  ( 4.275831445896958607E-31, 1.000000000000000000, 1.224646799147353207E-16 ) ) ;
#66 = CARTESIAN_POINT ( 'NONE',  ( 2.750000000000018208, 0.0000000000000000000, 5.499999999999989342 ) ) ;
#67 = EDGE_CURVE ( 'NONE', #107, #107, #75, .T. ) ;
#68 = CIRCLE ( 'NONE', #200, 2.999999999999999112 ) ;
#69 = MANIFOLD_SOLID_BREP ( 'Corps-Déplacer/Copier1[2]', #164 ) ;
#70 = PERSON_AND_ORGANIZATION ( #130, #99 ) ;
#71 = CIRCLE ( 'NONE', #49, 2.750000000000000000 ) ;
#72 = CC_DESIGN_PERSON_AND_ORGANIZATION_ASSIGNMENT ( #70, #143, ( #52 ) ) ;
#73 = PERSON_AND_ORGANIZATION ( #130, #99 ) ;
#74 = ADVANCED_BREP_SHAPE_REPRESENTATION ( '64398', ( #145, #69, #139 ), #112 ) ;
#75 = CIRCLE ( 'NONE', #105, 3.000000000000001776 ) ;
#76 = ORIENTED_EDGE ( 'NONE', *, *, #67, .T. ) ;
#77 = FACE_OUTER_BOUND ( 'NONE', #117, .T. ) ;
#78 = TOROIDAL_SURFACE ( 'NONE', #6, 10.75000000000000000, 8.000000000000000000 ) ;
#79 = ORIENTED_EDGE ( 'NONE', *, *, #58, .F. ) ;
#80 = DIRECTION ( 'NONE',  ( -4.275831445896958607E-31, -1.000000000000000000, -1.224646799147353207E-16 ) ) ;
#81 = DIRECTION ( 'NONE',  ( 0.0000000000000000000, 1.000000000000000000, 0.0000000000000000000 ) ) ;
#82 = CC_DESIGN_DATE_AND_TIME_ASSIGNMENT ( #203, #108, ( #153 ) ) ;
#83 = VERTEX_POINT ( 'NONE', #150 ) ;
#84 = CIRCLE ( 'NONE', #209, 2.749999999999999112 ) ;
#85 = DESIGN_CONTEXT ( 'detailed design', #219, 'design' ) ;
#86 = PLANE ( 'NONE',  #53 ) ;
#87 = CARTESIAN_POINT ( 'NONE',  ( 1.745740669421566678E-13, 2.499999999999995559, 50.00000000000000000 ) ) ;
#88 = APPROVAL_STATUS ( 'not_yet_approved' ) ;
#89 = ADVANCED_FACE ( 'NONE', ( #163, #121 ), #195, .T. ) ;
#90 = PERSON_AND_ORGANIZATION ( #130, #99 ) ;
#91 = LOCAL_TIME ( 8, 14, 42.00000000000000000, #223 ) ;
#92 = APPLICATION_CONTEXT ( 'configuration controlled 3d designs of mechanical parts and assemblies' ) ;
#93 = COORDINATED_UNIVERSAL_TIME_OFFSET ( 1, 0, .AHEAD. ) ;
#94 = PERSON_AND_ORGANIZATION ( #130, #99 ) ;
#95 = CARTESIAN_POINT ( 'NONE',  ( 1.920314736363723345E-14, 0.0000000000000000000, 5.500000000000000000 ) ) ;
#96 = CARTESIAN_POINT ( 'NONE',  ( 2.613134086098855924E-14, 0.0000000000000000000, 7.484313483298442371 ) ) ;
#97 = CC_DESIGN_DATE_AND_TIME_ASSIGNMENT ( #17, #168, ( #52 ) ) ;
#98 = DIRECTION ( 'NONE',  ( 0.0000000000000000000, 1.000000000000000000, 0.0000000000000000000 ) ) ;
#99 = ORGANIZATION ( 'UNSPECIFIED', 'UNSPECIFIED', '' ) ;
#100 = DIRECTION ( 'NONE',  ( 3.491481338843133355E-15, -1.224646799147353207E-16, 1.000000000000000000 ) ) ;
#101 = PRODUCT_RELATED_PRODUCT_CATEGORY ( 'detail', '', ( #111 ) ) ;
#102 = FACE_OUTER_BOUND ( 'NONE', #5, .T. ) ;
#103 = VERTEX_POINT ( 'NONE', #30 ) ;
#104 = CARTESIAN_POINT ( 'NONE',  ( 1.920314736363723030E-14, 0.0000000000000000000, 5.499999999999999112 ) ) ;
#105 = AXIS2_PLACEMENT_3D ( 'NONE', #26, #214, #81 ) ;
#106 = ADVANCED_FACE ( 'NONE', ( #64 ), #10, .T. ) ;
#107 = VERTEX_POINT ( 'NONE', #166 ) ;
#108 = DATE_TIME_ROLE ( 'classification_date' ) ;
#109 = DIRECTION ( 'NONE',  ( 1.000000000000000000, 0.0000000000000000000, 0.0000000000000000000 ) ) ;
#110 = DATE_AND_TIME ( #16, #57 ) ;
#111 = PRODUCT ( '64398', '64398', '', ( #126 ) ) ;
#112 =( GEOMETRIC_REPRESENTATION_CONTEXT ( 3 ) GLOBAL_UNCERTAINTY_ASSIGNED_CONTEXT ( ( #45 ) ) GLOBAL_UNIT_ASSIGNED_CONTEXT ( ( #140, #202, #124 ) ) REPRESENTATION_CONTEXT ( 'NONE', 'WORKASPACE' ) );
#113 = CLOSED_SHELL ( 'NONE', ( #89, #7, #172, #15, #24 ) ) ;
#114 = DIRECTION ( 'NONE',  ( 1.000000000000000000, 0.0000000000000000000, -3.491481338843133355E-15 ) ) ;
#115 = DIRECTION ( 'NONE',  ( -3.491481338843133355E-15, 1.224646799147353207E-16, -1.000000000000000000 ) ) ;
#116 = CC_DESIGN_SECURITY_CLASSIFICATION ( #153, ( #25 ) ) ;
#117 = EDGE_LOOP ( 'NONE', ( #79 ) ) ;
#118 = CARTESIAN_POINT ( 'NONE',  ( 1.920314736363723345E-14, 2.249639673992782580E-32, 5.500000000000000000 ) ) ;
#119 = ADVANCED_FACE ( 'NONE', ( #46 ), #120, .F. ) ;
#120 = PLANE ( 'NONE',  #135 ) ;
#121 = FACE_OUTER_BOUND ( 'NONE', #39, .T. ) ;
#122 = CC_DESIGN_PERSON_AND_ORGANIZATION_ASSIGNMENT ( #47, #187, ( #25 ) ) ;
#123 = DIRECTION ( 'NONE',  ( 3.491481338843133355E-15, -0.0000000000000000000, 1.000000000000000000 ) ) ;
#124 =( NAMED_UNIT ( * ) SI_UNIT ( $, .STERADIAN. ) SOLID_ANGLE_UNIT ( ) );
#125 = CALENDAR_DATE ( 2021, 10, 11 ) ;
#126 = MECHANICAL_CONTEXT ( 'NONE', #92, 'mechanical' ) ;
#127 = APPROVAL_PERSON_ORGANIZATION ( #142, #29, #19 ) ;
#128 = CARTESIAN_POINT ( 'NONE',  ( 0.0000000000000000000, 0.0000000000000000000, 0.0000000000000000000 ) ) ;
#129 = DIRECTION ( 'NONE',  ( -1.000000000000000000, 0.0000000000000000000, 3.469446951953615372E-15 ) ) ;
#130 = PERSON ( 'UNSPECIFIED', 'UNSPECIFIED', 'UNSPECIFIED', ('UNSPECIFIED'), ('UNSPECIFIED'), ('UNSPECIFIED') ) ;
#131 = EDGE_LOOP ( 'NONE', ( #146 ) ) ;
#132 = ORIENTED_EDGE ( 'NONE', *, *, #4, .T. ) ;
#133 = DIRECTION ( 'NONE',  ( 1.000000000000000000, 0.0000000000000000000, -3.491481338843133355E-15 ) ) ;
#134 = DIRECTION ( 'NONE',  ( -4.275831445896958607E-31, -1.000000000000000000, -1.224646799147353207E-16 ) ) ;
#135 = AXIS2_PLACEMENT_3D ( 'NONE', #215, #136, #134 ) ;
#136 = DIRECTION ( 'NONE',  ( 3.491481338843133355E-15, -1.224646799147353207E-16, 1.000000000000000000 ) ) ;
#137 = VERTEX_POINT ( 'NONE', #182 ) ;
#138 = CYLINDRICAL_SURFACE ( 'NONE', #222, 2.749999999999999556 ) ;
#139 = AXIS2_PLACEMENT_3D ( 'NONE', #36, #144, #109 ) ;
#140 =( LENGTH_UNIT ( ) NAMED_UNIT ( * ) SI_UNIT ( .MILLI., .METRE. ) );
#141 = APPROVAL ( #88, 'UNSPECIFIED' ) ;
#142 = PERSON_AND_ORGANIZATION ( #130, #99 ) ;
#143 = PERSON_AND_ORGANIZATION_ROLE ( 'creator' ) ;
#144 = DIRECTION ( 'NONE',  ( 0.0000000000000000000, 0.0000000000000000000, 1.000000000000000000 ) ) ;
#145 = MANIFOLD_SOLID_BREP ( 'Corps-Déplacer/Copier1[1]', #113 ) ;
#146 = ORIENTED_EDGE ( 'NONE', *, *, #176, .F. ) ;
#147 = EDGE_LOOP ( 'NONE', ( #161 ) ) ;
#148 = DIRECTION ( 'NONE',  ( -4.275831445896958607E-31, -1.000000000000000000, -1.224646799147353207E-16 ) ) ;
#149 = APPROVAL_PERSON_ORGANIZATION ( #94, #204, #34 ) ;
#150 = CARTESIAN_POINT ( 'NONE',  ( 2.750000000000018208, 0.0000000000000000000, 5.499999999999989342 ) ) ;
#151 = CARTESIAN_POINT ( 'NONE',  ( 0.0000000000000000000, 0.0000000000000000000, 0.0000000000000000000 ) ) ;
#152 = FACE_OUTER_BOUND ( 'NONE', #131, .T. ) ;
#153 = SECURITY_CLASSIFICATION ( '', '', #185 ) ;
#154 = PERSON_AND_ORGANIZATION_ROLE ( 'classification_officer' ) ;
#155 = PERSON_AND_ORGANIZATION_ROLE ( 'creator' ) ;
#156 = APPROVAL_STATUS ( 'not_yet_approved' ) ;
#157 = LOCAL_TIME ( 8, 14, 42.00000000000000000, #31 ) ;
#158 = DIRECTION ( 'NONE',  ( 3.491481338843133355E-15, -0.0000000000000000000, 1.000000000000000000 ) ) ;
#159 = ORIENTED_EDGE ( 'NONE', *, *, #196, .F. ) ;
#160 = AXIS2_PLACEMENT_3D ( 'NONE', #151, #165, #212 ) ;
#161 = ORIENTED_EDGE ( 'NONE', *, *, #67, .F. ) ;
#162 = FACE_OUTER_BOUND ( 'NONE', #194, .T. ) ;
#163 = FACE_OUTER_BOUND ( 'NONE', #192, .T. ) ;
#164 = CLOSED_SHELL ( 'NONE', ( #106, #183, #119 ) ) ;
#165 = DIRECTION ( 'NONE',  ( -3.491481338843133355E-15, 1.224646799147353207E-16, -1.000000000000000000 ) ) ;
#166 = CARTESIAN_POINT ( 'NONE',  ( 1.728283262727351074E-13, 2.999999999999995559, 49.50000000000000000 ) ) ;
#167 = PRODUCT_DEFINITION_SHAPE ( 'NONE', 'NONE',  #52 ) ;
#168 = DATE_TIME_ROLE ( 'creation_date' ) ;
#169 = PERSON_AND_ORGANIZATION ( #130, #99 ) ;
#170 = APPROVAL_DATE_TIME ( #110, #204 ) ;
#171 = CALENDAR_DATE ( 2021, 10, 11 ) ;
#172 = ADVANCED_FACE ( 'NONE', ( #152 ), #86, .F. ) ;
#173 = ORIENTED_EDGE ( 'NONE', *, *, #58, .T. ) ;
#174 = AXIS2_PLACEMENT_3D ( 'NONE', #9, #28, #61 ) ;
#175 = ORIENTED_EDGE ( 'NONE', *, *, #176, .T. ) ;
#176 = EDGE_CURVE ( 'NONE', #11, #11, #22, .T. ) ;
#177 = ORIENTED_EDGE ( 'NONE', *, *, #54, .T. ) ;
#178 = EDGE_LOOP ( 'NONE', ( #175 ) ) ;
#179 = AXIS2_PLACEMENT_3D ( 'NONE', #42, #12, #180 ) ;
#180 = DIRECTION ( 'NONE',  ( 0.0000000000000000000, 1.000000000000000000, 0.0000000000000000000 ) ) ;
#181 = CARTESIAN_POINT ( 'NONE',  ( 0.0000000000000000000, 0.0000000000000000000, 0.0000000000000000000 ) ) ;
#182 = CARTESIAN_POINT ( 'NONE',  ( -2.999999999999973355, 0.0000000000000000000, 7.484313483298453029 ) ) ;
#183 = ADVANCED_FACE ( 'NONE', ( #102, #162 ), #138, .T. ) ;
#184 = DIRECTION ( 'NONE',  ( -3.491481338843133355E-15, 1.224646799147353207E-16, -1.000000000000000000 ) ) ;
#185 = SECURITY_CLASSIFICATION_LEVEL ( 'unclassified' ) ;
#186 = LOCAL_TIME ( 8, 14, 42.00000000000000000, #93 ) ;
#187 = PERSON_AND_ORGANIZATION_ROLE ( 'design_supplier' ) ;
#188 = APPLICATION_PROTOCOL_DEFINITION ( 'international standard', 'config_control_design', 1994, #219 ) ;
#189 = PERSON_AND_ORGANIZATION_ROLE ( 'design_owner' ) ;
#190 = AXIS2_PLACEMENT_3D ( 'NONE', #198, #62, #148 ) ;
#191 = FACE_BOUND ( 'NONE', #178, .T. ) ;
#192 = EDGE_LOOP ( 'NONE', ( #76 ) ) ;
#193 = AXIS2_PLACEMENT_3D ( 'NONE', #118, #100, #80 ) ;
#194 = EDGE_LOOP ( 'NONE', ( #159 ) ) ;
#195 = CYLINDRICAL_SURFACE ( 'NONE', #160, 2.999999999999999112 ) ;
#196 = EDGE_CURVE ( 'NONE', #216, #216, #32, .T. ) ;
#197 = CARTESIAN_POINT ( 'NONE',  ( 1.745740669421566678E-13, 1.874699728327314346E-32, 50.00000000000000000 ) ) ;
#198 = CARTESIAN_POINT ( 'NONE',  ( 1.920314736363723345E-14, 2.249639673992782580E-32, 5.500000000000000000 ) ) ;
#199 = DIRECTION ( 'NONE',  ( 3.491481338843133355E-15, -0.0000000000000000000, 1.000000000000000000 ) ) ;
#200 = AXIS2_PLACEMENT_3D ( 'NONE', #96, #55, #129 ) ;
#201 = CONICAL_SURFACE ( 'NONE', #63, 2.500000000000001776, 0.7853981633974479459 ) ;
#202 =( NAMED_UNIT ( * ) PLANE_ANGLE_UNIT ( ) SI_UNIT ( $, .RADIAN. ) );
#203 = DATE_AND_TIME ( #171, #157 ) ;
#204 = APPROVAL ( #33, 'UNSPECIFIED' ) ;
#205 = CC_DESIGN_APPROVAL ( #141, ( #153 ) ) ;
#206 = APPLICATION_PROTOCOL_DEFINITION ( 'international standard', 'config_control_design', 1994, #92 ) ;
#207 = CALENDAR_DATE ( 2021, 10, 11 ) ;
#208 = CALENDAR_DATE ( 2021, 10, 11 ) ;
#209 = AXIS2_PLACEMENT_3D ( 'NONE', #104, #199, #44 ) ;
#210 = ORIENTED_EDGE ( 'NONE', *, *, #196, .T. ) ;
#211 = EDGE_LOOP ( 'NONE', ( #210 ) ) ;
#212 = DIRECTION ( 'NONE',  ( 4.275831445896958607E-31, 1.000000000000000000, 1.224646799147353207E-16 ) ) ;
#213 = CC_DESIGN_APPROVAL ( #29, ( #52 ) ) ;
#214 = DIRECTION ( 'NONE',  ( -3.491481338843133355E-15, 1.224646799147353207E-16, -1.000000000000000000 ) ) ;
#215 = CARTESIAN_POINT ( 'NONE',  ( -3.206816838010677856E-31, 1.124799933034399755E-32, -9.184688465421452921E-17 ) ) ;
#216 = VERTEX_POINT ( 'NONE', #66 ) ;
#217 = LOCAL_TIME ( 8, 14, 42.00000000000000000, #50 ) ;
#218 = SHAPE_DEFINITION_REPRESENTATION ( #167, #74 ) ;
#219 = APPLICATION_CONTEXT ( 'configuration controlled 3d designs of mechanical parts and assemblies' ) ;
#220 = COORDINATED_UNIVERSAL_TIME_OFFSET ( 1, 0, .AHEAD. ) ;
#221 = DATE_AND_TIME ( #208, #186 ) ;
#222 = AXIS2_PLACEMENT_3D ( 'NONE', #181, #123, #27 ) ;
#223 = COORDINATED_UNIVERSAL_TIME_OFFSET ( 1, 0, .AHEAD. ) ;
ENDSEC;
END-ISO-10303-21;
