ISO-10303-21;
HEADER;
FILE_DESCRIPTION (( 'STEP AP203' ),
    '1' );
FILE_NAME ('64397.step',
    '2021-11-10T07:14:41',
    ( '' ),
    ( '' ),
    'SwSTEP 2.0',
    'SolidWorks 2019',
    '' );
FILE_SCHEMA (( 'CONFIG_CONTROL_DESIGN' ));
ENDSEC;

DATA;
#1 = LOCAL_TIME ( 8, 14, 41.00000000000000000, #52 ) ;
#2 = SECURITY_CLASSIFICATION_LEVEL ( 'unclassified' ) ;
#3 = PERSON_AND_ORGANIZATION_ROLE ( 'classification_officer' ) ;
#4 = EDGE_CURVE ( 'NONE', #123, #123, #16, .T. ) ;
#5 = APPROVAL_ROLE ( '' ) ;
#6 = VERTEX_POINT ( 'NONE', #140 ) ;
#7 = FACE_OUTER_BOUND ( 'NONE', #187, .T. ) ;
#8 = AXIS2_PLACEMENT_3D ( 'NONE', #130, #207, #50 ) ;
#9 = APPLICATION_PROTOCOL_DEFINITION ( 'international standard', 'config_control_design', 1994, #115 ) ;
#10 = EDGE_CURVE ( 'NONE', #40, #40, #41, .T. ) ;
#11 = DIRECTION ( 'NONE',  ( 1.000000000000000000, 0.0000000000000000000, -3.491481338843133355E-15 ) ) ;
#12 = MECHANICAL_CONTEXT ( 'NONE', #115, 'mechanical' ) ;
#13 = SECURITY_CLASSIFICATION ( '', '', #2 ) ;
#14 = CARTESIAN_POINT ( 'NONE',  ( 1.745740669421566678E-14, 2.249639673992782854E-32, 5.000000000000000000 ) ) ;
#15 = CARTESIAN_POINT ( 'NONE',  ( 1.745740669421566678E-13, -6.123233995736766085E-15, 50.00000000000000000 ) ) ;
#16 = CIRCLE ( 'NONE', #72, 2.500000000000000000 ) ;
#17 = CARTESIAN_POINT ( 'NONE',  ( 1.745740669421566678E-14, 2.249639673992782854E-32, 5.000000000000000000 ) ) ;
#18 = ADVANCED_FACE ( 'NONE', ( #166 ), #103, .T. ) ;
#19 = ADVANCED_FACE ( 'NONE', ( #168 ), #134, .F. ) ;
#20 = APPROVAL_STATUS ( 'not_yet_approved' ) ;
#21 = DIRECTION ( 'NONE',  ( -3.491481338843133355E-15, 1.224646799147353207E-16, -1.000000000000000000 ) ) ;
#22 = CIRCLE ( 'NONE', #158, 2.999999999999999112 ) ;
#23 = VERTEX_POINT ( 'NONE', #199 ) ;
#24 = ADVANCED_FACE ( 'NONE', ( #153, #7 ), #73, .T. ) ;
#25 = ORGANIZATION ( 'UNSPECIFIED', 'UNSPECIFIED', '' ) ;
#26 = PERSON_AND_ORGANIZATION_ROLE ( 'design_owner' ) ;
#27 = ORIENTED_EDGE ( 'NONE', *, *, #4, .T. ) ;
#28 = ORIENTED_EDGE ( 'NONE', *, *, #51, .T. ) ;
#29 = DIRECTION ( 'NONE',  ( 3.491481338843133355E-15, -0.0000000000000000000, 1.000000000000000000 ) ) ;
#30 = PERSON_AND_ORGANIZATION ( #88, #25 ) ;
#31 = CLOSED_SHELL ( 'NONE', ( #18, #24, #84 ) ) ;
#32 = APPROVAL_ROLE ( '' ) ;
#33 = CARTESIAN_POINT ( 'NONE',  ( 1.745740669421566678E-13, -6.123233995736766085E-15, 50.00000000000000000 ) ) ;
#34 = DIRECTION ( 'NONE',  ( 3.491481338843133355E-15, -0.0000000000000000000, 1.000000000000000000 ) ) ;
#35 = CC_DESIGN_DATE_AND_TIME_ASSIGNMENT ( #82, #208, ( #13 ) ) ;
#36 = DIRECTION ( 'NONE',  ( 3.491481338843133355E-15, -1.224646799147353207E-16, 1.000000000000000000 ) ) ;
#37 = CARTESIAN_POINT ( 'NONE',  ( 0.0000000000000000000, 0.0000000000000000000, 0.0000000000000000000 ) ) ;
#38 = APPROVAL_STATUS ( 'not_yet_approved' ) ;
#39 = PERSON_AND_ORGANIZATION ( #88, #25 ) ;
#40 = VERTEX_POINT ( 'NONE', #151 ) ;
#41 = CIRCLE ( 'NONE', #148, 3.000000000000001776 ) ;
#42 = PERSON_AND_ORGANIZATION ( #88, #25 ) ;
#43 = CARTESIAN_POINT ( 'NONE',  ( 0.0000000000000000000, 0.0000000000000000000, 0.0000000000000000000 ) ) ;
#44 = CARTESIAN_POINT ( 'NONE',  ( 1.745740669421566362E-14, 0.0000000000000000000, 4.999999999999999112 ) ) ;
#45 = ADVANCED_FACE ( 'NONE', ( #141, #216 ), #165, .F. ) ;
#46 = AXIS2_PLACEMENT_3D ( 'NONE', #17, #36, #87 ) ;
#47 = EDGE_LOOP ( 'NONE', ( #48 ) ) ;
#48 = ORIENTED_EDGE ( 'NONE', *, *, #4, .F. ) ;
#49 = EDGE_LOOP ( 'NONE', ( #77 ) ) ;
#50 = DIRECTION ( 'NONE',  ( -4.275831445896958607E-31, -1.000000000000000000, -1.224646799147353207E-16 ) ) ;
#51 = EDGE_CURVE ( 'NONE', #177, #177, #102, .T. ) ;
#52 = COORDINATED_UNIVERSAL_TIME_OFFSET ( 1, 0, .AHEAD. ) ;
#53 = MANIFOLD_SOLID_BREP ( 'Corps-Déplacer/Copier1[2]', #31 ) ;
#54 = EDGE_CURVE ( 'NONE', #75, #75, #160, .T. ) ;
#55 = DIRECTION ( 'NONE',  ( 4.275831445896958607E-31, 1.000000000000000000, 1.224646799147353207E-16 ) ) ;
#56 = APPROVAL_PERSON_ORGANIZATION ( #118, #162, #209 ) ;
#57 = FACE_OUTER_BOUND ( 'NONE', #112, .T. ) ;
#58 = LOCAL_TIME ( 8, 14, 41.00000000000000000, #98 ) ;
#59 = DIRECTION ( 'NONE',  ( 1.000000000000000000, 0.0000000000000000000, 0.0000000000000000000 ) ) ;
#60 = AXIS2_PLACEMENT_3D ( 'NONE', #124, #202, #181 ) ;
#61 = PERSON_AND_ORGANIZATION ( #88, #25 ) ;
#62 = PRODUCT_RELATED_PRODUCT_CATEGORY ( 'detail', '', ( #192 ) ) ;
#63 = LOCAL_TIME ( 8, 14, 41.00000000000000000, #167 ) ;
#64 = EDGE_LOOP ( 'NONE', ( #95 ) ) ;
#65 = APPROVAL_STATUS ( 'not_yet_approved' ) ;
#66 = AXIS2_PLACEMENT_3D ( 'NONE', #43, #198, #59 ) ;
#67 = PRODUCT_DEFINITION ( 'UNKNOWN', '', #111, #195 ) ;
#68 = ADVANCED_BREP_SHAPE_REPRESENTATION ( '64397', ( #205, #53, #66 ), #223 ) ;
#69 = PERSON_AND_ORGANIZATION ( #88, #25 ) ;
#70 = CC_DESIGN_SECURITY_CLASSIFICATION ( #13, ( #111 ) ) ;
#71 = PERSON_AND_ORGANIZATION ( #88, #25 ) ;
#72 = AXIS2_PLACEMENT_3D ( 'NONE', #37, #34, #221 ) ;
#73 = CYLINDRICAL_SURFACE ( 'NONE', #60, 2.500000000000000444 ) ;
#74 = CC_DESIGN_DATE_AND_TIME_ASSIGNMENT ( #175, #86, ( #67 ) ) ;
#75 = VERTEX_POINT ( 'NONE', #180 ) ;
#76 = CALENDAR_DATE ( 2021, 10, 11 ) ;
#77 = ORIENTED_EDGE ( 'NONE', *, *, #210, .T. ) ;
#78 = ORIENTED_EDGE ( 'NONE', *, *, #210, .F. ) ;
#79 = FACE_OUTER_BOUND ( 'NONE', #47, .T. ) ;
#80 = CC_DESIGN_APPROVAL ( #146, ( #67 ) ) ;
#81 = EDGE_LOOP ( 'NONE', ( #27 ) ) ;
#82 = DATE_AND_TIME ( #133, #63 ) ;
#83 = DATE_AND_TIME ( #171, #196 ) ;
#84 = ADVANCED_FACE ( 'NONE', ( #79 ), #222, .F. ) ;
#85 = DIRECTION ( 'NONE',  ( -1.000000000000000000, 0.0000000000000000000, 3.469446951953615372E-15 ) ) ;
#86 = DATE_TIME_ROLE ( 'creation_date' ) ;
#87 = DIRECTION ( 'NONE',  ( -4.275831445896958607E-31, -1.000000000000000000, -1.224646799147353207E-16 ) ) ;
#88 = PERSON ( 'UNSPECIFIED', 'UNSPECIFIED', 'UNSPECIFIED', ('UNSPECIFIED'), ('UNSPECIFIED'), ('UNSPECIFIED') ) ;
#89 = AXIS2_PLACEMENT_3D ( 'NONE', #44, #29, #97 ) ;
#90 = CARTESIAN_POINT ( 'NONE',  ( 1.745740669421566678E-14, 0.0000000000000000000, 5.000000000000000000 ) ) ;
#91 = ADVANCED_FACE ( 'NONE', ( #94, #189 ), #125, .T. ) ;
#92 = CARTESIAN_POINT ( 'NONE',  ( 1.745740669421566678E-13, 1.874699728327314346E-32, 50.00000000000000000 ) ) ;
#93 = ORIENTED_EDGE ( 'NONE', *, *, #51, .F. ) ;
#94 = FACE_OUTER_BOUND ( 'NONE', #64, .T. ) ;
#95 = ORIENTED_EDGE ( 'NONE', *, *, #10, .F. ) ;
#96 = CLOSED_SHELL ( 'NONE', ( #193, #91, #174, #45, #19 ) ) ;
#97 = DIRECTION ( 'NONE',  ( 1.000000000000000000, 0.0000000000000000000, -3.469446951953613400E-15 ) ) ;
#98 = COORDINATED_UNIVERSAL_TIME_OFFSET ( 1, 0, .AHEAD. ) ;
#99 = CC_DESIGN_PERSON_AND_ORGANIZATION_ASSIGNMENT ( #61, #26, ( #192 ) ) ;
#100 = DIRECTION ( 'NONE',  ( -3.491481338843133355E-15, 1.224646799147353207E-16, -1.000000000000000000 ) ) ;
#101 = DIRECTION ( 'NONE',  ( -3.491481338843133355E-15, 1.224646799147353207E-16, -1.000000000000000000 ) ) ;
#102 = CIRCLE ( 'NONE', #89, 2.500000000000000444 ) ;
#103 = PLANE ( 'NONE',  #138 ) ;
#104 = CALENDAR_DATE ( 2021, 10, 11 ) ;
#105 = AXIS2_PLACEMENT_3D ( 'NONE', #33, #101, #164 ) ;
#106 = CARTESIAN_POINT ( 'NONE',  ( 2.717727938016405924E-14, 0.0000000000000000000, 7.783882181415001433 ) ) ;
#107 = FACE_OUTER_BOUND ( 'NONE', #217, .T. ) ;
#108 = CC_DESIGN_APPROVAL ( #117, ( #111 ) ) ;
#109 = DIRECTION ( 'NONE',  ( 0.0000000000000000000, 1.000000000000000000, 0.0000000000000000000 ) ) ;
#110 = CC_DESIGN_PERSON_AND_ORGANIZATION_ASSIGNMENT ( #39, #150, ( #111 ) ) ;
#111 = PRODUCT_DEFINITION_FORMATION_WITH_SPECIFIED_SOURCE ( 'ANY', '', #192, .NOT_KNOWN. ) ;
#112 = EDGE_LOOP ( 'NONE', ( #78 ) ) ;
#113 = ORIENTED_EDGE ( 'NONE', *, *, #10, .T. ) ;
#114 = DIRECTION ( 'NONE',  ( 3.491481338843133355E-15, -0.0000000000000000000, 1.000000000000000000 ) ) ;
#115 = APPLICATION_CONTEXT ( 'configuration controlled 3d designs of mechanical parts and assemblies' ) ;
#116 = APPROVAL_DATE_TIME ( #169, #162 ) ;
#117 = APPROVAL ( #20, 'UNSPECIFIED' ) ;
#118 = PERSON_AND_ORGANIZATION ( #88, #25 ) ;
#119 = PERSON_AND_ORGANIZATION_ROLE ( 'design_supplier' ) ;
#120 = FACE_OUTER_BOUND ( 'NONE', #184, .T. ) ;
#121 = DIRECTION ( 'NONE',  ( -3.491481338843133355E-15, 0.0000000000000000000, -1.000000000000000000 ) ) ;
#122 = DIRECTION ( 'NONE',  ( 4.275831445896958607E-31, 1.000000000000000000, 1.224646799147353207E-16 ) ) ;
#123 = VERTEX_POINT ( 'NONE', #200 ) ;
#124 = CARTESIAN_POINT ( 'NONE',  ( 0.0000000000000000000, 0.0000000000000000000, 0.0000000000000000000 ) ) ;
#125 = CONICAL_SURFACE ( 'NONE', #105, 2.500000000000001776, 0.7853981633974479459 ) ;
#126 = ORIENTED_EDGE ( 'NONE', *, *, #54, .F. ) ;
#127 = DIRECTION ( 'NONE',  ( 1.000000000000000000, 0.0000000000000000000, -3.469446951953613400E-15 ) ) ;
#128 = AXIS2_PLACEMENT_3D ( 'NONE', #15, #211, #109 ) ;
#129 = CARTESIAN_POINT ( 'NONE',  ( 1.728283262727351074E-13, -6.062001655779398511E-15, 49.50000000000000000 ) ) ;
#130 = CARTESIAN_POINT ( 'NONE',  ( -3.206816838010677856E-31, 1.124799933034399755E-32, -9.184688465421452921E-17 ) ) ;
#131 = DIRECTION ( 'NONE',  ( -4.275831445896958607E-31, -1.000000000000000000, -1.224646799147353207E-16 ) ) ;
#132 = DIRECTION ( 'NONE',  ( 3.491481338843133355E-15, -1.224646799147353207E-16, 1.000000000000000000 ) ) ;
#133 = CALENDAR_DATE ( 2021, 10, 11 ) ;
#134 = PLANE ( 'NONE',  #46 ) ;
#135 =( NAMED_UNIT ( * ) PLANE_ANGLE_UNIT ( ) SI_UNIT ( $, .RADIAN. ) );
#136 = CALENDAR_DATE ( 2021, 10, 11 ) ;
#137 = CC_DESIGN_APPROVAL ( #162, ( #13 ) ) ;
#138 = AXIS2_PLACEMENT_3D ( 'NONE', #14, #132, #131 ) ;
#139 = PERSON_AND_ORGANIZATION_ROLE ( 'creator' ) ;
#140 = CARTESIAN_POINT ( 'NONE',  ( -2.999999999999972022, 0.0000000000000000000, 7.783882181415012091 ) ) ;
#141 = FACE_OUTER_BOUND ( 'NONE', #219, .T. ) ;
#142 = ORIENTED_EDGE ( 'NONE', *, *, #170, .T. ) ;
#143 = EDGE_LOOP ( 'NONE', ( #142 ) ) ;
#144 = APPROVAL_PERSON_ORGANIZATION ( #30, #146, #32 ) ;
#145 = PRODUCT_DEFINITION_SHAPE ( 'NONE', 'NONE',  #67 ) ;
#146 = APPROVAL ( #65, 'UNSPECIFIED' ) ;
#147 = DIRECTION ( 'NONE',  ( 0.0000000000000000000, 1.000000000000000000, 0.0000000000000000000 ) ) ;
#148 = AXIS2_PLACEMENT_3D ( 'NONE', #129, #100, #147 ) ;
#149 = PERSON_AND_ORGANIZATION ( #88, #25 ) ;
#150 = PERSON_AND_ORGANIZATION_ROLE ( 'creator' ) ;
#151 = CARTESIAN_POINT ( 'NONE',  ( 1.728283262727351074E-13, 2.999999999999995559, 49.50000000000000000 ) ) ;
#152 = APPLICATION_CONTEXT ( 'configuration controlled 3d designs of mechanical parts and assemblies' ) ;
#153 = FACE_OUTER_BOUND ( 'NONE', #81, .T. ) ;
#154 = AXIS2_PLACEMENT_3D ( 'NONE', #92, #157, #55 ) ;
#155 = DIRECTION ( 'NONE',  ( 3.491481338843133355E-15, -0.0000000000000000000, 1.000000000000000000 ) ) ;
#156 = CARTESIAN_POINT ( 'NONE',  ( 2.500000000000017764, 0.0000000000000000000, 4.999999999999990230 ) ) ;
#157 = DIRECTION ( 'NONE',  ( -3.491481338843133355E-15, 1.224646799147353207E-16, -1.000000000000000000 ) ) ;
#158 = AXIS2_PLACEMENT_3D ( 'NONE', #106, #121, #85 ) ;
#159 = DATE_AND_TIME ( #76, #58 ) ;
#160 = CIRCLE ( 'NONE', #172, 2.500000000000000444 ) ;
#161 = ORIENTED_EDGE ( 'NONE', *, *, #170, .F. ) ;
#162 = APPROVAL ( #38, 'UNSPECIFIED' ) ;
#163 = CARTESIAN_POINT ( 'NONE',  ( 1.745740669421566362E-14, 0.0000000000000000000, 4.999999999999999112 ) ) ;
#164 = DIRECTION ( 'NONE',  ( 0.0000000000000000000, 1.000000000000000000, 0.0000000000000000000 ) ) ;
#165 = TOROIDAL_SURFACE ( 'NONE', #204, 10.50000000000000178, 8.000000000000000000 ) ;
#166 = FACE_OUTER_BOUND ( 'NONE', #203, .T. ) ;
#167 = COORDINATED_UNIVERSAL_TIME_OFFSET ( 1, 0, .AHEAD. ) ;
#168 = FACE_OUTER_BOUND ( 'NONE', #220, .T. ) ;
#169 = DATE_AND_TIME ( #104, #1 ) ;
#170 = EDGE_CURVE ( 'NONE', #23, #23, #206, .T. ) ;
#171 = CALENDAR_DATE ( 2021, 10, 11 ) ;
#172 = AXIS2_PLACEMENT_3D ( 'NONE', #163, #114, #127 ) ;
#173 = APPROVAL_DATE_TIME ( #83, #117 ) ;
#174 = ADVANCED_FACE ( 'NONE', ( #107 ), #176, .F. ) ;
#175 = DATE_AND_TIME ( #136, #212 ) ;
#176 = PLANE ( 'NONE',  #154 ) ;
#177 = VERTEX_POINT ( 'NONE', #156 ) ;
#178 = CC_DESIGN_PERSON_AND_ORGANIZATION_ASSIGNMENT ( #71, #139, ( #67 ) ) ;
#179 = CARTESIAN_POINT ( 'NONE',  ( 0.0000000000000000000, 0.0000000000000000000, 0.0000000000000000000 ) ) ;
#180 = CARTESIAN_POINT ( 'NONE',  ( 2.500000000000017764, 0.0000000000000000000, 4.999999999999990230 ) ) ;
#181 = DIRECTION ( 'NONE',  ( 1.000000000000000000, 0.0000000000000000000, -3.491481338843133355E-15 ) ) ;
#182 = ORIENTED_EDGE ( 'NONE', *, *, #54, .T. ) ;
#183 = APPROVAL_PERSON_ORGANIZATION ( #42, #117, #5 ) ;
#184 = EDGE_LOOP ( 'NONE', ( #113 ) ) ;
#185 = APPLICATION_PROTOCOL_DEFINITION ( 'international standard', 'config_control_design', 1994, #152 ) ;
#186 = CC_DESIGN_PERSON_AND_ORGANIZATION_ASSIGNMENT ( #69, #3, ( #13 ) ) ;
#187 = EDGE_LOOP ( 'NONE', ( #126 ) ) ;
#188 = APPROVAL_DATE_TIME ( #159, #146 ) ;
#189 = FACE_BOUND ( 'NONE', #143, .T. ) ;
#190 = SHAPE_DEFINITION_REPRESENTATION ( #145, #68 ) ;
#191 = UNCERTAINTY_MEASURE_WITH_UNIT (LENGTH_MEASURE( 1.000000000000000082E-05 ), #215, 'distance_accuracy_value', 'NONE');
#192 = PRODUCT ( '64397', '64397', '', ( #12 ) ) ;
#193 = ADVANCED_FACE ( 'NONE', ( #120, #57 ), #194, .T. ) ;
#194 = CYLINDRICAL_SURFACE ( 'NONE', #218, 2.999999999999999112 ) ;
#195 = DESIGN_CONTEXT ( 'detailed design', #152, 'design' ) ;
#196 = LOCAL_TIME ( 8, 14, 41.00000000000000000, #214 ) ;
#197 = COORDINATED_UNIVERSAL_TIME_OFFSET ( 1, 0, .AHEAD. ) ;
#198 = DIRECTION ( 'NONE',  ( 0.0000000000000000000, 0.0000000000000000000, 1.000000000000000000 ) ) ;
#199 = CARTESIAN_POINT ( 'NONE',  ( 1.745740669421566678E-13, 2.499999999999995559, 50.00000000000000000 ) ) ;
#200 = CARTESIAN_POINT ( 'NONE',  ( 2.500000000000000000, 0.0000000000000000000, -8.728703347107833388E-15 ) ) ;
#201 =( NAMED_UNIT ( * ) SI_UNIT ( $, .STERADIAN. ) SOLID_ANGLE_UNIT ( ) );
#202 = DIRECTION ( 'NONE',  ( 3.491481338843133355E-15, -0.0000000000000000000, 1.000000000000000000 ) ) ;
#203 = EDGE_LOOP ( 'NONE', ( #182 ) ) ;
#204 = AXIS2_PLACEMENT_3D ( 'NONE', #90, #155, #11 ) ;
#205 = MANIFOLD_SOLID_BREP ( 'Corps-Déplacer/Copier1[1]', #96 ) ;
#206 = CIRCLE ( 'NONE', #128, 2.500000000000001776 ) ;
#207 = DIRECTION ( 'NONE',  ( 3.491481338843133355E-15, -1.224646799147353207E-16, 1.000000000000000000 ) ) ;
#208 = DATE_TIME_ROLE ( 'classification_date' ) ;
#209 = APPROVAL_ROLE ( '' ) ;
#210 = EDGE_CURVE ( 'NONE', #6, #6, #22, .T. ) ;
#211 = DIRECTION ( 'NONE',  ( -3.491481338843133355E-15, 1.224646799147353207E-16, -1.000000000000000000 ) ) ;
#212 = LOCAL_TIME ( 8, 14, 41.00000000000000000, #197 ) ;
#213 = CC_DESIGN_PERSON_AND_ORGANIZATION_ASSIGNMENT ( #149, #119, ( #111 ) ) ;
#214 = COORDINATED_UNIVERSAL_TIME_OFFSET ( 1, 0, .AHEAD. ) ;
#215 =( LENGTH_UNIT ( ) NAMED_UNIT ( * ) SI_UNIT ( .MILLI., .METRE. ) );
#216 = FACE_OUTER_BOUND ( 'NONE', #49, .T. ) ;
#217 = EDGE_LOOP ( 'NONE', ( #161 ) ) ;
#218 = AXIS2_PLACEMENT_3D ( 'NONE', #179, #21, #122 ) ;
#219 = EDGE_LOOP ( 'NONE', ( #28 ) ) ;
#220 = EDGE_LOOP ( 'NONE', ( #93 ) ) ;
#221 = DIRECTION ( 'NONE',  ( 1.000000000000000000, 0.0000000000000000000, -3.491481338843133355E-15 ) ) ;
#222 = PLANE ( 'NONE',  #8 ) ;
#223 =( GEOMETRIC_REPRESENTATION_CONTEXT ( 3 ) GLOBAL_UNCERTAINTY_ASSIGNED_CONTEXT ( ( #191 ) ) GLOBAL_UNIT_ASSIGNED_CONTEXT ( ( #215, #135, #201 ) ) REPRESENTATION_CONTEXT ( 'NONE', 'WORKASPACE' ) );
ENDSEC;
END-ISO-10303-21;
