ISO-10303-21;
HEADER;
FILE_DESCRIPTION (( 'STEP AP203' ),
    '1' );
FILE_NAME ('64395.step',
    '2021-11-10T07:14:41',
    ( '' ),
    ( '' ),
    'SwSTEP 2.0',
    'SolidWorks 2019',
    '' );
FILE_SCHEMA (( 'CONFIG_CONTROL_DESIGN' ));
ENDSEC;

DATA;
#1 = PERSON_AND_ORGANIZATION ( #21, #92 ) ;
#2 = APPROVAL_DATE_TIME ( #207, #161 ) ;
#3 = ADVANCED_FACE ( 'NONE', ( #44 ), #15, .T. ) ;
#4 = APPROVAL_DATE_TIME ( #81, #110 ) ;
#5 = CALENDAR_DATE ( 2021, 10, 11 ) ;
#6 = COORDINATED_UNIVERSAL_TIME_OFFSET ( 1, 0, .AHEAD. ) ;
#7 = DIRECTION ( 'NONE',  ( -3.491481338843133355E-15, 0.0000000000000000000, -1.000000000000000000 ) ) ;
#8 = CIRCLE ( 'NONE', #159, 3.000000000000001776 ) ;
#9 = EDGE_CURVE ( 'NONE', #156, #156, #168, .T. ) ;
#10 = DIRECTION ( 'NONE',  ( 3.491481338843133355E-15, -1.224646799147353207E-16, 1.000000000000000000 ) ) ;
#11 = PRODUCT_RELATED_PRODUCT_CATEGORY ( 'detail', '', ( #17 ) ) ;
#12 = AXIS2_PLACEMENT_3D ( 'NONE', #202, #185, #34 ) ;
#13 = EDGE_LOOP ( 'NONE', ( #89 ) ) ;
#14 = FACE_OUTER_BOUND ( 'NONE', #200, .T. ) ;
#15 = PLANE ( 'NONE',  #53 ) ;
#16 = CARTESIAN_POINT ( 'NONE',  ( 1.745740669421566678E-13, 1.874699728327314346E-32, 50.00000000000000000 ) ) ;
#17 = PRODUCT ( '64395', '64395', '', ( #186 ) ) ;
#18 = CYLINDRICAL_SURFACE ( 'NONE', #101, 2.999999999999999112 ) ;
#19 = CONICAL_SURFACE ( 'NONE', #162, 2.500000000000001776, 0.7853981633974479459 ) ;
#20 = CARTESIAN_POINT ( 'NONE',  ( 1.571166602479409694E-14, 0.0000000000000000000, 4.499999999999999112 ) ) ;
#21 = PERSON ( 'UNSPECIFIED', 'UNSPECIFIED', 'UNSPECIFIED', ('UNSPECIFIED'), ('UNSPECIFIED'), ('UNSPECIFIED') ) ;
#22 = PERSON_AND_ORGANIZATION_ROLE ( 'classification_officer' ) ;
#23 = APPROVAL_ROLE ( '' ) ;
#24 = DATE_TIME_ROLE ( 'creation_date' ) ;
#25 = DIRECTION ( 'NONE',  ( 0.0000000000000000000, 1.000000000000000000, 0.0000000000000000000 ) ) ;
#26 = APPROVAL_PERSON_ORGANIZATION ( #171, #161, #23 ) ;
#27 = DIRECTION ( 'NONE',  ( 0.0000000000000000000, 1.000000000000000000, 0.0000000000000000000 ) ) ;
#28 =( LENGTH_UNIT ( ) NAMED_UNIT ( * ) SI_UNIT ( .MILLI., .METRE. ) );
#29 = ORIENTED_EDGE ( 'NONE', *, *, #9, .T. ) ;
#30 = ORIENTED_EDGE ( 'NONE', *, *, #184, .F. ) ;
#31 = AXIS2_PLACEMENT_3D ( 'NONE', #213, #10, #109 ) ;
#32 = DIRECTION ( 'NONE',  ( 0.0000000000000000000, 0.0000000000000000000, 1.000000000000000000 ) ) ;
#33 = DIRECTION ( 'NONE',  ( 4.275831445896958607E-31, 1.000000000000000000, 1.224646799147353207E-16 ) ) ;
#34 = DIRECTION ( 'NONE',  ( -4.275831445896958607E-31, -1.000000000000000000, -1.224646799147353207E-16 ) ) ;
#35 = CARTESIAN_POINT ( 'NONE',  ( 0.0000000000000000000, 0.0000000000000000000, 0.0000000000000000000 ) ) ;
#36 = DIRECTION ( 'NONE',  ( 3.491481338843133355E-15, -0.0000000000000000000, 1.000000000000000000 ) ) ;
#37 = CARTESIAN_POINT ( 'NONE',  ( 1.745740669421566678E-13, -6.123233995736766085E-15, 50.00000000000000000 ) ) ;
#38 = DATE_TIME_ROLE ( 'classification_date' ) ;
#39 = DATE_AND_TIME ( #5, #121 ) ;
#40 = AXIS2_PLACEMENT_3D ( 'NONE', #79, #36, #136 ) ;
#41 = TOROIDAL_SURFACE ( 'NONE', #40, 10.25000000000000178, 8.000000000000001776 ) ;
#42 = PERSON_AND_ORGANIZATION ( #21, #92 ) ;
#43 = ADVANCED_FACE ( 'NONE', ( #144 ), #45, .F. ) ;
#44 = FACE_OUTER_BOUND ( 'NONE', #73, .T. ) ;
#45 = PLANE ( 'NONE',  #205 ) ;
#46 = EDGE_CURVE ( 'NONE', #210, #210, #71, .T. ) ;
#47 = CC_DESIGN_PERSON_AND_ORGANIZATION_ASSIGNMENT ( #42, #154, ( #150 ) ) ;
#48 = FACE_OUTER_BOUND ( 'NONE', #129, .T. ) ;
#49 = COORDINATED_UNIVERSAL_TIME_OFFSET ( 1, 0, .AHEAD. ) ;
#50 = CARTESIAN_POINT ( 'NONE',  ( 2.250000000000000000, 0.0000000000000000000, -7.855833012397050049E-15 ) ) ;
#51 = MANIFOLD_SOLID_BREP ( 'Corps-Déplacer/Copier1[1]', #164 ) ;
#52 = CARTESIAN_POINT ( 'NONE',  ( 2.250000000000014211, 0.0000000000000000000, 4.499999999999991118 ) ) ;
#53 = AXIS2_PLACEMENT_3D ( 'NONE', #183, #94, #165 ) ;
#54 = AXIS2_PLACEMENT_3D ( 'NONE', #68, #142, #27 ) ;
#55 = APPROVAL ( #177, 'UNSPECIFIED' ) ;
#56 = PERSON_AND_ORGANIZATION_ROLE ( 'design_owner' ) ;
#57 = DIRECTION ( 'NONE',  ( -3.491481338843133355E-15, 1.224646799147353207E-16, -1.000000000000000000 ) ) ;
#58 = EDGE_LOOP ( 'NONE', ( #95 ) ) ;
#59 = DIRECTION ( 'NONE',  ( 3.491481338843133355E-15, -0.0000000000000000000, 1.000000000000000000 ) ) ;
#60 = ORIENTED_EDGE ( 'NONE', *, *, #190, .T. ) ;
#61 = PERSON_AND_ORGANIZATION ( #21, #92 ) ;
#62 = ADVANCED_FACE ( 'NONE', ( #188, #14 ), #131, .T. ) ;
#63 = FACE_OUTER_BOUND ( 'NONE', #58, .T. ) ;
#64 = APPROVAL_STATUS ( 'not_yet_approved' ) ;
#65 = PERSON_AND_ORGANIZATION_ROLE ( 'design_supplier' ) ;
#66 = PERSON_AND_ORGANIZATION ( #21, #92 ) ;
#67 = APPROVAL_STATUS ( 'not_yet_approved' ) ;
#68 = CARTESIAN_POINT ( 'NONE',  ( 1.745740669421566678E-13, -6.123233995736766085E-15, 50.00000000000000000 ) ) ;
#69 = DIRECTION ( 'NONE',  ( -1.000000000000000000, 0.0000000000000000000, 3.469446951953615372E-15 ) ) ;
#70 = CARTESIAN_POINT ( 'NONE',  ( 2.250000000000014211, 0.0000000000000000000, 4.499999999999991118 ) ) ;
#71 = CIRCLE ( 'NONE', #106, 2.249999999999998668 ) ;
#72 = ORIENTED_EDGE ( 'NONE', *, *, #46, .F. ) ;
#73 = EDGE_LOOP ( 'NONE', ( #215 ) ) ;
#74 = ORIENTED_EDGE ( 'NONE', *, *, #172, .T. ) ;
#75 = CC_DESIGN_PERSON_AND_ORGANIZATION_ASSIGNMENT ( #61, #56, ( #17 ) ) ;
#76 = EDGE_LOOP ( 'NONE', ( #29 ) ) ;
#77 = ADVANCED_FACE ( 'NONE', ( #63 ), #132, .F. ) ;
#78 = CARTESIAN_POINT ( 'NONE',  ( 0.0000000000000000000, 0.0000000000000000000, 0.0000000000000000000 ) ) ;
#79 = CARTESIAN_POINT ( 'NONE',  ( 1.571166602479410010E-14, 0.0000000000000000000, 4.500000000000000000 ) ) ;
#80 = SECURITY_CLASSIFICATION_LEVEL ( 'unclassified' ) ;
#81 = DATE_AND_TIME ( #173, #117 ) ;
#82 = VERTEX_POINT ( 'NONE', #197 ) ;
#83 = PERSON_AND_ORGANIZATION ( #21, #92 ) ;
#84 = DIRECTION ( 'NONE',  ( -3.491481338843133355E-15, 1.224646799147353207E-16, -1.000000000000000000 ) ) ;
#85 = CC_DESIGN_APPROVAL ( #110, ( #199 ) ) ;
#86 = AXIS2_PLACEMENT_3D ( 'NONE', #135, #7, #69 ) ;
#87 = DESIGN_CONTEXT ( 'detailed design', #126, 'design' ) ;
#88 = CARTESIAN_POINT ( 'NONE',  ( 1.728283262727351074E-13, 2.999999999999995559, 49.50000000000000000 ) ) ;
#89 = ORIENTED_EDGE ( 'NONE', *, *, #172, .F. ) ;
#90 = APPROVAL_PERSON_ORGANIZATION ( #83, #110, #141 ) ;
#91 = CIRCLE ( 'NONE', #151, 2.249999999999998668 ) ;
#92 = ORGANIZATION ( 'UNSPECIFIED', 'UNSPECIFIED', '' ) ;
#93 = EDGE_LOOP ( 'NONE', ( #60 ) ) ;
#94 = DIRECTION ( 'NONE',  ( 3.491481338843133355E-15, -1.224646799147353207E-16, 1.000000000000000000 ) ) ;
#95 = ORIENTED_EDGE ( 'NONE', *, *, #9, .F. ) ;
#96 = DIRECTION ( 'NONE',  ( 3.491481338843133355E-15, -0.0000000000000000000, 1.000000000000000000 ) ) ;
#97 = APPLICATION_PROTOCOL_DEFINITION ( 'international standard', 'config_control_design', 1994, #126 ) ;
#98 = CC_DESIGN_PERSON_AND_ORGANIZATION_ASSIGNMENT ( #66, #208, ( #199 ) ) ;
#99 = FACE_OUTER_BOUND ( 'NONE', #198, .T. ) ;
#100 = LOCAL_TIME ( 8, 14, 41.00000000000000000, #6 ) ;
#101 = AXIS2_PLACEMENT_3D ( 'NONE', #78, #84, #157 ) ;
#102 = DIRECTION ( 'NONE',  ( -3.491481338843133355E-15, 1.224646799147353207E-16, -1.000000000000000000 ) ) ;
#103 = CALENDAR_DATE ( 2021, 10, 11 ) ;
#104 = ADVANCED_FACE ( 'NONE', ( #48, #181 ), #41, .F. ) ;
#105 = LOCAL_TIME ( 8, 14, 41.00000000000000000, #49 ) ;
#106 = AXIS2_PLACEMENT_3D ( 'NONE', #216, #59, #182 ) ;
#107 = APPLICATION_PROTOCOL_DEFINITION ( 'international standard', 'config_control_design', 1994, #167 ) ;
#108 = VERTEX_POINT ( 'NONE', #88 ) ;
#109 = DIRECTION ( 'NONE',  ( -4.275831445896958607E-31, -1.000000000000000000, -1.224646799147353207E-16 ) ) ;
#110 = APPROVAL ( #67, 'UNSPECIFIED' ) ;
#111 = CC_DESIGN_APPROVAL ( #161, ( #158 ) ) ;
#112 = AXIS2_PLACEMENT_3D ( 'NONE', #35, #32, #163 ) ;
#113 = ORIENTED_EDGE ( 'NONE', *, *, #184, .T. ) ;
#114 = ADVANCED_FACE ( 'NONE', ( #99, #134 ), #19, .T. ) ;
#115 = EDGE_LOOP ( 'NONE', ( #74 ) ) ;
#116 = DIRECTION ( 'NONE',  ( 1.000000000000000000, 0.0000000000000000000, -3.491481338843133355E-15 ) ) ;
#117 = LOCAL_TIME ( 8, 14, 41.00000000000000000, #212 ) ;
#118 = DATE_AND_TIME ( #103, #105 ) ;
#119 = COORDINATED_UNIVERSAL_TIME_OFFSET ( 1, 0, .AHEAD. ) ;
#120 = COORDINATED_UNIVERSAL_TIME_OFFSET ( 1, 0, .AHEAD. ) ;
#121 = LOCAL_TIME ( 8, 14, 41.00000000000000000, #120 ) ;
#122 = PLANE ( 'NONE',  #31 ) ;
#123 = CARTESIAN_POINT ( 'NONE',  ( 1.745740669421566678E-13, 2.499999999999995559, 50.00000000000000000 ) ) ;
#124 = FACE_OUTER_BOUND ( 'NONE', #148, .T. ) ;
#125 = CC_DESIGN_PERSON_AND_ORGANIZATION_ASSIGNMENT ( #1, #22, ( #158 ) ) ;
#126 = APPLICATION_CONTEXT ( 'configuration controlled 3d designs of mechanical parts and assemblies' ) ;
#127 = EDGE_LOOP ( 'NONE', ( #220 ) ) ;
#128 = SHAPE_DEFINITION_REPRESENTATION ( #204, #147 ) ;
#129 = EDGE_LOOP ( 'NONE', ( #146 ) ) ;
#130 = DIRECTION ( 'NONE',  ( 1.000000000000000000, 0.0000000000000000000, -3.491481338843133355E-15 ) ) ;
#131 = CYLINDRICAL_SURFACE ( 'NONE', #133, 2.249999999999999556 ) ;
#132 = PLANE ( 'NONE',  #12 ) ;
#133 = AXIS2_PLACEMENT_3D ( 'NONE', #203, #149, #130 ) ;
#134 = FACE_BOUND ( 'NONE', #93, .T. ) ;
#135 = CARTESIAN_POINT ( 'NONE',  ( 2.751963704791719872E-14, 0.0000000000000000000, 7.881937314617167623 ) ) ;
#136 = DIRECTION ( 'NONE',  ( 1.000000000000000000, 0.0000000000000000000, -3.491481338843133750E-15 ) ) ;
#137 = CALENDAR_DATE ( 2021, 10, 11 ) ;
#138 = DIRECTION ( 'NONE',  ( 1.000000000000000000, 0.0000000000000000000, -3.469446951953616161E-15 ) ) ;
#139 = DATE_AND_TIME ( #155, #100 ) ;
#140 = VERTEX_POINT ( 'NONE', #52 ) ;
#141 = APPROVAL_ROLE ( '' ) ;
#142 = DIRECTION ( 'NONE',  ( -3.491481338843133355E-15, 1.224646799147353207E-16, -1.000000000000000000 ) ) ;
#143 = EDGE_CURVE ( 'NONE', #140, #140, #91, .T. ) ;
#144 = FACE_OUTER_BOUND ( 'NONE', #127, .T. ) ;
#145 = EDGE_LOOP ( 'NONE', ( #113 ) ) ;
#146 = ORIENTED_EDGE ( 'NONE', *, *, #143, .T. ) ;
#147 = ADVANCED_BREP_SHAPE_REPRESENTATION ( '64395', ( #51, #206, #112 ), #223 ) ;
#148 = EDGE_LOOP ( 'NONE', ( #214 ) ) ;
#149 = DIRECTION ( 'NONE',  ( 3.491481338843133355E-15, -0.0000000000000000000, 1.000000000000000000 ) ) ;
#150 = PRODUCT_DEFINITION ( 'UNKNOWN', '', #199, #87 ) ;
#151 = AXIS2_PLACEMENT_3D ( 'NONE', #20, #152, #138 ) ;
#152 = DIRECTION ( 'NONE',  ( 3.491481338843133355E-15, -0.0000000000000000000, 1.000000000000000000 ) ) ;
#153 = PERSON_AND_ORGANIZATION ( #21, #92 ) ;
#154 = PERSON_AND_ORGANIZATION_ROLE ( 'creator' ) ;
#155 = CALENDAR_DATE ( 2021, 10, 11 ) ;
#156 = VERTEX_POINT ( 'NONE', #50 ) ;
#157 = DIRECTION ( 'NONE',  ( 4.275831445896958607E-31, 1.000000000000000000, 1.224646799147353207E-16 ) ) ;
#158 = SECURITY_CLASSIFICATION ( '', '', #80 ) ;
#159 = AXIS2_PLACEMENT_3D ( 'NONE', #196, #176, #25 ) ;
#160 =( NAMED_UNIT ( * ) SI_UNIT ( $, .STERADIAN. ) SOLID_ANGLE_UNIT ( ) );
#161 = APPROVAL ( #64, 'UNSPECIFIED' ) ;
#162 = AXIS2_PLACEMENT_3D ( 'NONE', #37, #102, #221 ) ;
#163 = DIRECTION ( 'NONE',  ( 1.000000000000000000, 0.0000000000000000000, 0.0000000000000000000 ) ) ;
#164 = CLOSED_SHELL ( 'NONE', ( #166, #114, #43, #104, #218 ) ) ;
#165 = DIRECTION ( 'NONE',  ( -4.275831445896958607E-31, -1.000000000000000000, -1.224646799147353207E-16 ) ) ;
#166 = ADVANCED_FACE ( 'NONE', ( #170, #169 ), #18, .T. ) ;
#167 = APPLICATION_CONTEXT ( 'configuration controlled 3d designs of mechanical parts and assemblies' ) ;
#168 = CIRCLE ( 'NONE', #174, 2.250000000000000000 ) ;
#169 = FACE_OUTER_BOUND ( 'NONE', #13, .T. ) ;
#170 = FACE_OUTER_BOUND ( 'NONE', #145, .T. ) ;
#171 = PERSON_AND_ORGANIZATION ( #21, #92 ) ;
#172 = EDGE_CURVE ( 'NONE', #82, #82, #201, .T. ) ;
#173 = CALENDAR_DATE ( 2021, 10, 11 ) ;
#174 = AXIS2_PLACEMENT_3D ( 'NONE', #219, #96, #116 ) ;
#175 = APPROVAL_DATE_TIME ( #39, #55 ) ;
#176 = DIRECTION ( 'NONE',  ( -3.491481338843133355E-15, 1.224646799147353207E-16, -1.000000000000000000 ) ) ;
#177 = APPROVAL_STATUS ( 'not_yet_approved' ) ;
#178 = CC_DESIGN_PERSON_AND_ORGANIZATION_ASSIGNMENT ( #153, #65, ( #199 ) ) ;
#179 =( NAMED_UNIT ( * ) PLANE_ANGLE_UNIT ( ) SI_UNIT ( $, .RADIAN. ) );
#180 = VERTEX_POINT ( 'NONE', #123 ) ;
#181 = FACE_OUTER_BOUND ( 'NONE', #115, .T. ) ;
#182 = DIRECTION ( 'NONE',  ( 1.000000000000000000, 0.0000000000000000000, -3.469446951953616161E-15 ) ) ;
#183 = CARTESIAN_POINT ( 'NONE',  ( 1.571166602479410010E-14, 2.249639673992782854E-32, 4.500000000000000000 ) ) ;
#184 = EDGE_CURVE ( 'NONE', #108, #108, #8, .T. ) ;
#185 = DIRECTION ( 'NONE',  ( 3.491481338843133355E-15, -1.224646799147353207E-16, 1.000000000000000000 ) ) ;
#186 = MECHANICAL_CONTEXT ( 'NONE', #167, 'mechanical' ) ;
#187 = CC_DESIGN_DATE_AND_TIME_ASSIGNMENT ( #139, #24, ( #150 ) ) ;
#188 = FACE_OUTER_BOUND ( 'NONE', #76, .T. ) ;
#189 = PERSON_AND_ORGANIZATION ( #21, #92 ) ;
#190 = EDGE_CURVE ( 'NONE', #180, #180, #217, .T. ) ;
#191 = LOCAL_TIME ( 8, 14, 41.00000000000000000, #119 ) ;
#192 = CLOSED_SHELL ( 'NONE', ( #3, #62, #77 ) ) ;
#193 = CC_DESIGN_APPROVAL ( #55, ( #150 ) ) ;
#194 = APPROVAL_ROLE ( '' ) ;
#195 = UNCERTAINTY_MEASURE_WITH_UNIT (LENGTH_MEASURE( 1.000000000000000082E-05 ), #28, 'distance_accuracy_value', 'NONE');
#196 = CARTESIAN_POINT ( 'NONE',  ( 1.728283262727351074E-13, -6.062001655779398511E-15, 49.50000000000000000 ) ) ;
#197 = CARTESIAN_POINT ( 'NONE',  ( -2.999999999999972022, 0.0000000000000000000, 7.881937314617178281 ) ) ;
#198 = EDGE_LOOP ( 'NONE', ( #30 ) ) ;
#199 = PRODUCT_DEFINITION_FORMATION_WITH_SPECIFIED_SOURCE ( 'ANY', '', #17, .NOT_KNOWN. ) ;
#200 = EDGE_LOOP ( 'NONE', ( #72 ) ) ;
#201 = CIRCLE ( 'NONE', #86, 2.999999999999999112 ) ;
#202 = CARTESIAN_POINT ( 'NONE',  ( -3.206816838010677856E-31, 1.124799933034399755E-32, -9.184688465421452921E-17 ) ) ;
#203 = CARTESIAN_POINT ( 'NONE',  ( 0.0000000000000000000, 0.0000000000000000000, 0.0000000000000000000 ) ) ;
#204 = PRODUCT_DEFINITION_SHAPE ( 'NONE', 'NONE',  #150 ) ;
#205 = AXIS2_PLACEMENT_3D ( 'NONE', #16, #57, #33 ) ;
#206 = MANIFOLD_SOLID_BREP ( 'Corps-Déplacer/Copier1[2]', #192 ) ;
#207 = DATE_AND_TIME ( #137, #191 ) ;
#208 = PERSON_AND_ORGANIZATION_ROLE ( 'creator' ) ;
#209 = CC_DESIGN_DATE_AND_TIME_ASSIGNMENT ( #118, #38, ( #158 ) ) ;
#210 = VERTEX_POINT ( 'NONE', #70 ) ;
#211 = APPROVAL_PERSON_ORGANIZATION ( #189, #55, #194 ) ;
#212 = COORDINATED_UNIVERSAL_TIME_OFFSET ( 1, 0, .AHEAD. ) ;
#213 = CARTESIAN_POINT ( 'NONE',  ( 1.571166602479410010E-14, 2.249639673992782854E-32, 4.500000000000000000 ) ) ;
#214 = ORIENTED_EDGE ( 'NONE', *, *, #143, .F. ) ;
#215 = ORIENTED_EDGE ( 'NONE', *, *, #46, .T. ) ;
#216 = CARTESIAN_POINT ( 'NONE',  ( 1.571166602479409694E-14, 0.0000000000000000000, 4.499999999999999112 ) ) ;
#217 = CIRCLE ( 'NONE', #54, 2.500000000000001776 ) ;
#218 = ADVANCED_FACE ( 'NONE', ( #124 ), #122, .F. ) ;
#219 = CARTESIAN_POINT ( 'NONE',  ( 0.0000000000000000000, 0.0000000000000000000, 0.0000000000000000000 ) ) ;
#220 = ORIENTED_EDGE ( 'NONE', *, *, #190, .F. ) ;
#221 = DIRECTION ( 'NONE',  ( 0.0000000000000000000, 1.000000000000000000, 0.0000000000000000000 ) ) ;
#222 = CC_DESIGN_SECURITY_CLASSIFICATION ( #158, ( #199 ) ) ;
#223 =( GEOMETRIC_REPRESENTATION_CONTEXT ( 3 ) GLOBAL_UNCERTAINTY_ASSIGNED_CONTEXT ( ( #195 ) ) GLOBAL_UNIT_ASSIGNED_CONTEXT ( ( #28, #179, #160 ) ) REPRESENTATION_CONTEXT ( 'NONE', 'WORKASPACE' ) );
ENDSEC;
END-ISO-10303-21;
