ISO-10303-21;
HEADER;
FILE_DESCRIPTION (( 'STEP AP203' ),
    '1' );
FILE_NAME ('64394.step',
    '2021-11-10T07:14:40',
    ( '' ),
    ( '' ),
    'SwSTEP 2.0',
    'SolidWorks 2019',
    '' );
FILE_SCHEMA (( 'CONFIG_CONTROL_DESIGN' ));
ENDSEC;

DATA;
#1 = VERTEX_POINT ( 'NONE', #22 ) ;
#2 = APPROVAL_PERSON_ORGANIZATION ( #78, #8, #198 ) ;
#3 = DIRECTION ( 'NONE',  ( 0.0000000000000000000, 0.0000000000000000000, 1.000000000000000000 ) ) ;
#4 = AXIS2_PLACEMENT_3D ( 'NONE', #155, #157, #103 ) ;
#5 = CALENDAR_DATE ( 2021, 10, 11 ) ;
#6 = UNCERTAINTY_MEASURE_WITH_UNIT (LENGTH_MEASURE( 1.000000000000000082E-05 ), #21, 'distance_accuracy_value', 'NONE');
#7 = PERSON_AND_ORGANIZATION_ROLE ( 'classification_officer' ) ;
#8 = APPROVAL ( #75, 'UNSPECIFIED' ) ;
#9 = COORDINATED_UNIVERSAL_TIME_OFFSET ( 1, 0, .AHEAD. ) ;
#10 = ORIENTED_EDGE ( 'NONE', *, *, #214, .T. ) ;
#11 = EDGE_CURVE ( 'NONE', #92, #92, #185, .T. ) ;
#12 = APPLICATION_CONTEXT ( 'configuration controlled 3d designs of mechanical parts and assemblies' ) ;
#13 = DIRECTION ( 'NONE',  ( -3.491481338843133355E-15, 1.224646799147353207E-16, -1.000000000000000000 ) ) ;
#14 = ORIENTED_EDGE ( 'NONE', *, *, #102, .T. ) ;
#15 = PRODUCT_RELATED_PRODUCT_CATEGORY ( 'detail', '', ( #112 ) ) ;
#16 = FACE_OUTER_BOUND ( 'NONE', #131, .T. ) ;
#17 = LOCAL_TIME ( 8, 14, 40.00000000000000000, #212 ) ;
#18 = ORIENTED_EDGE ( 'NONE', *, *, #214, .F. ) ;
#19 = PRODUCT_DEFINITION_FORMATION_WITH_SPECIFIED_SOURCE ( 'ANY', '', #112, .NOT_KNOWN. ) ;
#20 = CC_DESIGN_PERSON_AND_ORGANIZATION_ASSIGNMENT ( #110, #55, ( #112 ) ) ;
#21 =( LENGTH_UNIT ( ) NAMED_UNIT ( * ) SI_UNIT ( .MILLI., .METRE. ) );
#22 = CARTESIAN_POINT ( 'NONE',  ( 2.000000000000000000, 0.0000000000000000000, -6.982962677686266711E-15 ) ) ;
#23 = APPROVAL_ROLE ( '' ) ;
#24 = AXIS2_PLACEMENT_3D ( 'NONE', #168, #79, #81 ) ;
#25 = AXIS2_PLACEMENT_3D ( 'NONE', #182, #221, #29 ) ;
#26 = AXIS2_PLACEMENT_3D ( 'NONE', #166, #108, #177 ) ;
#27 = EDGE_LOOP ( 'NONE', ( #30 ) ) ;
#28 = PERSON_AND_ORGANIZATION ( #190, #40 ) ;
#29 = DIRECTION ( 'NONE',  ( 0.0000000000000000000, 1.000000000000000000, 0.0000000000000000000 ) ) ;
#30 = ORIENTED_EDGE ( 'NONE', *, *, #73, .F. ) ;
#31 = AXIS2_PLACEMENT_3D ( 'NONE', #176, #210, #68 ) ;
#32 = DIRECTION ( 'NONE',  ( -3.491481338843133355E-15, 0.0000000000000000000, -1.000000000000000000 ) ) ;
#33 = ORIENTED_EDGE ( 'NONE', *, *, #158, .F. ) ;
#34 = CC_DESIGN_PERSON_AND_ORGANIZATION_ASSIGNMENT ( #43, #217, ( #19 ) ) ;
#35 = APPLICATION_PROTOCOL_DEFINITION ( 'international standard', 'config_control_design', 1994, #12 ) ;
#36 = PLANE ( 'NONE',  #31 ) ;
#37 = DIRECTION ( 'NONE',  ( 1.000000000000000000, 0.0000000000000000000, -3.491481338843133355E-15 ) ) ;
#38 =( NAMED_UNIT ( * ) PLANE_ANGLE_UNIT ( ) SI_UNIT ( $, .RADIAN. ) );
#39 = PERSON_AND_ORGANIZATION ( #190, #40 ) ;
#40 = ORGANIZATION ( 'UNSPECIFIED', 'UNSPECIFIED', '' ) ;
#41 = CC_DESIGN_DATE_AND_TIME_ASSIGNMENT ( #169, #203, ( #94 ) ) ;
#42 = EDGE_LOOP ( 'NONE', ( #14 ) ) ;
#43 = PERSON_AND_ORGANIZATION ( #190, #40 ) ;
#44 = DIRECTION ( 'NONE',  ( 3.491481338843133355E-15, -0.0000000000000000000, 1.000000000000000000 ) ) ;
#45 = CALENDAR_DATE ( 2021, 10, 11 ) ;
#46 = ORIENTED_EDGE ( 'NONE', *, *, #142, .F. ) ;
#47 = DIRECTION ( 'NONE',  ( 3.491481338843133355E-15, -0.0000000000000000000, 1.000000000000000000 ) ) ;
#48 = CIRCLE ( 'NONE', #160, 2.000000000000000000 ) ;
#49 = EDGE_LOOP ( 'NONE', ( #220 ) ) ;
#50 = CC_DESIGN_DATE_AND_TIME_ASSIGNMENT ( #60, #113, ( #148 ) ) ;
#51 = CC_DESIGN_PERSON_AND_ORGANIZATION_ASSIGNMENT ( #64, #7, ( #148 ) ) ;
#52 = DIRECTION ( 'NONE',  ( 3.491481338843133355E-15, -0.0000000000000000000, 1.000000000000000000 ) ) ;
#53 = TOROIDAL_SURFACE ( 'NONE', #128, 10.00000000000000178, 8.000000000000000000 ) ;
#54 = FACE_OUTER_BOUND ( 'NONE', #101, .T. ) ;
#55 = PERSON_AND_ORGANIZATION_ROLE ( 'design_owner' ) ;
#56 = VERTEX_POINT ( 'NONE', #165 ) ;
#57 = LOCAL_TIME ( 8, 14, 40.00000000000000000, #116 ) ;
#58 = CALENDAR_DATE ( 2021, 10, 11 ) ;
#59 = ADVANCED_FACE ( 'NONE', ( #16 ), #97, .F. ) ;
#60 = DATE_AND_TIME ( #98, #145 ) ;
#61 = FACE_OUTER_BOUND ( 'NONE', #82, .T. ) ;
#62 = PERSON_AND_ORGANIZATION_ROLE ( 'design_supplier' ) ;
#63 = CYLINDRICAL_SURFACE ( 'NONE', #164, 2.000000000000000000 ) ;
#64 = PERSON_AND_ORGANIZATION ( #190, #40 ) ;
#65 = DIRECTION ( 'NONE',  ( -3.491481338843133355E-15, 1.224646799147353207E-16, -1.000000000000000000 ) ) ;
#66 = DIRECTION ( 'NONE',  ( 1.000000000000000000, 0.0000000000000000000, -3.491481338843133355E-15 ) ) ;
#67 = EDGE_LOOP ( 'NONE', ( #33 ) ) ;
#68 = DIRECTION ( 'NONE',  ( -4.275831445896958607E-31, -1.000000000000000000, -1.224646799147353207E-16 ) ) ;
#69 = APPLICATION_PROTOCOL_DEFINITION ( 'international standard', 'config_control_design', 1994, #216 ) ;
#70 = APPROVAL_STATUS ( 'not_yet_approved' ) ;
#71 = AXIS2_PLACEMENT_3D ( 'NONE', #215, #65, #156 ) ;
#72 =( NAMED_UNIT ( * ) SI_UNIT ( $, .STERADIAN. ) SOLID_ANGLE_UNIT ( ) );
#73 = EDGE_CURVE ( 'NONE', #213, #213, #152, .T. ) ;
#74 = FACE_OUTER_BOUND ( 'NONE', #27, .T. ) ;
#75 = APPROVAL_STATUS ( 'not_yet_approved' ) ;
#76 = CC_DESIGN_APPROVAL ( #8, ( #148 ) ) ;
#77 = SHAPE_DEFINITION_REPRESENTATION ( #90, #96 ) ;
#78 = PERSON_AND_ORGANIZATION ( #190, #40 ) ;
#79 = DIRECTION ( 'NONE',  ( -3.491481338843133355E-15, 1.224646799147353207E-16, -1.000000000000000000 ) ) ;
#80 = CARTESIAN_POINT ( 'NONE',  ( 0.0000000000000000000, 0.0000000000000000000, 0.0000000000000000000 ) ) ;
#81 = DIRECTION ( 'NONE',  ( 4.275831445896958607E-31, 1.000000000000000000, 1.224646799147353207E-16 ) ) ;
#82 = EDGE_LOOP ( 'NONE', ( #173 ) ) ;
#83 = FACE_OUTER_BOUND ( 'NONE', #42, .T. ) ;
#84 = AXIS2_PLACEMENT_3D ( 'NONE', #162, #89, #167 ) ;
#85 = ADVANCED_FACE ( 'NONE', ( #136 ), #100, .F. ) ;
#86 = CIRCLE ( 'NONE', #180, 2.999999999999999112 ) ;
#87 = DIRECTION ( 'NONE',  ( -1.000000000000000000, 0.0000000000000000000, 3.469446951953615372E-15 ) ) ;
#88 = CC_DESIGN_PERSON_AND_ORGANIZATION_ASSIGNMENT ( #151, #135, ( #94 ) ) ;
#89 = DIRECTION ( 'NONE',  ( -3.491481338843133355E-15, 1.224646799147353207E-16, -1.000000000000000000 ) ) ;
#90 = PRODUCT_DEFINITION_SHAPE ( 'NONE', 'NONE',  #94 ) ;
#91 = CARTESIAN_POINT ( 'NONE',  ( 2.000000000000013767, 0.0000000000000000000, 3.999999999999992450 ) ) ;
#92 = VERTEX_POINT ( 'NONE', #197 ) ;
#93 = COORDINATED_UNIVERSAL_TIME_OFFSET ( 1, 0, .AHEAD. ) ;
#94 = PRODUCT_DEFINITION ( 'UNKNOWN', '', #19, #201 ) ;
#95 = APPROVAL_PERSON_ORGANIZATION ( #28, #117, #199 ) ;
#96 = ADVANCED_BREP_SHAPE_REPRESENTATION ( '64394', ( #194, #126, #191 ), #161 ) ;
#97 = PLANE ( 'NONE',  #4 ) ;
#98 = CALENDAR_DATE ( 2021, 10, 11 ) ;
#99 = PLANE ( 'NONE',  #24 ) ;
#100 = PLANE ( 'NONE',  #171 ) ;
#101 = EDGE_LOOP ( 'NONE', ( #10 ) ) ;
#102 = EDGE_CURVE ( 'NONE', #127, #127, #48, .T. ) ;
#103 = DIRECTION ( 'NONE',  ( -4.275831445896958607E-31, -1.000000000000000000, -1.224646799147353207E-16 ) ) ;
#104 = CLOSED_SHELL ( 'NONE', ( #196, #129, #59 ) ) ;
#105 = CC_DESIGN_APPROVAL ( #117, ( #19 ) ) ;
#106 = ADVANCED_FACE ( 'NONE', ( #61 ), #99, .F. ) ;
#107 = CIRCLE ( 'NONE', #26, 2.000000000000000000 ) ;
#108 = DIRECTION ( 'NONE',  ( 3.491481338843133355E-15, -0.0000000000000000000, 1.000000000000000000 ) ) ;
#109 = FACE_BOUND ( 'NONE', #202, .T. ) ;
#110 = PERSON_AND_ORGANIZATION ( #190, #40 ) ;
#111 = APPROVAL_DATE_TIME ( #219, #117 ) ;
#112 = PRODUCT ( '64394', '64394', '', ( #192 ) ) ;
#113 = DATE_TIME_ROLE ( 'classification_date' ) ;
#114 = CC_DESIGN_APPROVAL ( #186, ( #94 ) ) ;
#115 = DIRECTION ( 'NONE',  ( 3.491481338843133355E-15, -0.0000000000000000000, 1.000000000000000000 ) ) ;
#116 = COORDINATED_UNIVERSAL_TIME_OFFSET ( 1, 0, .AHEAD. ) ;
#117 = APPROVAL ( #139, 'UNSPECIFIED' ) ;
#118 = FACE_OUTER_BOUND ( 'NONE', #67, .T. ) ;
#119 = SECURITY_CLASSIFICATION_LEVEL ( 'unclassified' ) ;
#120 = CYLINDRICAL_SURFACE ( 'NONE', #207, 2.999999999999999112 ) ;
#121 = CLOSED_SHELL ( 'NONE', ( #133, #175, #106, #209, #85 ) ) ;
#122 = LOCAL_TIME ( 8, 14, 40.00000000000000000, #9 ) ;
#123 = CARTESIAN_POINT ( 'NONE',  ( 2.748837443430594578E-14, 0.0000000000000000000, 7.872983346207411692 ) ) ;
#124 = EDGE_LOOP ( 'NONE', ( #223 ) ) ;
#125 = FACE_OUTER_BOUND ( 'NONE', #150, .T. ) ;
#126 = MANIFOLD_SOLID_BREP ( 'Corps-Déplacer/Copier1[2]', #104 ) ;
#127 = VERTEX_POINT ( 'NONE', #130 ) ;
#128 = AXIS2_PLACEMENT_3D ( 'NONE', #144, #52, #37 ) ;
#129 = ADVANCED_FACE ( 'NONE', ( #218, #188 ), #63, .T. ) ;
#130 = CARTESIAN_POINT ( 'NONE',  ( 2.000000000000013767, 0.0000000000000000000, 3.999999999999992450 ) ) ;
#131 = EDGE_LOOP ( 'NONE', ( #46 ) ) ;
#132 = CONICAL_SURFACE ( 'NONE', #84, 2.500000000000001776, 0.7853981633974479459 ) ;
#133 = ADVANCED_FACE ( 'NONE', ( #141, #118 ), #120, .T. ) ;
#134 = APPROVAL_DATE_TIME ( #179, #186 ) ;
#135 = PERSON_AND_ORGANIZATION_ROLE ( 'creator' ) ;
#136 = FACE_OUTER_BOUND ( 'NONE', #204, .T. ) ;
#137 = COORDINATED_UNIVERSAL_TIME_OFFSET ( 1, 0, .AHEAD. ) ;
#138 = CARTESIAN_POINT ( 'NONE',  ( 0.0000000000000000000, 0.0000000000000000000, 0.0000000000000000000 ) ) ;
#139 = APPROVAL_STATUS ( 'not_yet_approved' ) ;
#140 = DIRECTION ( 'NONE',  ( 1.000000000000000000, 0.0000000000000000000, -3.491481338843133355E-15 ) ) ;
#141 = FACE_OUTER_BOUND ( 'NONE', #49, .T. ) ;
#142 = EDGE_CURVE ( 'NONE', #1, #1, #181, .T. ) ;
#143 = ORIENTED_EDGE ( 'NONE', *, *, #102, .F. ) ;
#144 = CARTESIAN_POINT ( 'NONE',  ( 1.396592535537253342E-14, 0.0000000000000000000, 4.000000000000000000 ) ) ;
#145 = LOCAL_TIME ( 8, 14, 40.00000000000000000, #93 ) ;
#146 = DIRECTION ( 'NONE',  ( 1.000000000000000000, 0.0000000000000000000, 0.0000000000000000000 ) ) ;
#147 = CARTESIAN_POINT ( 'NONE',  ( 0.0000000000000000000, 0.0000000000000000000, 0.0000000000000000000 ) ) ;
#148 = SECURITY_CLASSIFICATION ( '', '', #119 ) ;
#149 = VERTEX_POINT ( 'NONE', #91 ) ;
#150 = EDGE_LOOP ( 'NONE', ( #205 ) ) ;
#151 = PERSON_AND_ORGANIZATION ( #190, #40 ) ;
#152 = CIRCLE ( 'NONE', #71, 3.000000000000001776 ) ;
#153 = DIRECTION ( 'NONE',  ( 1.000000000000000000, 0.0000000000000000000, -3.469446951953614189E-15 ) ) ;
#154 = CALENDAR_DATE ( 2021, 10, 11 ) ;
#155 = CARTESIAN_POINT ( 'NONE',  ( -3.206816838010677856E-31, 1.124799933034399755E-32, -9.184688465421452921E-17 ) ) ;
#156 = DIRECTION ( 'NONE',  ( 0.0000000000000000000, 1.000000000000000000, 0.0000000000000000000 ) ) ;
#157 = DIRECTION ( 'NONE',  ( 3.491481338843133355E-15, -1.224646799147353207E-16, 1.000000000000000000 ) ) ;
#158 = EDGE_CURVE ( 'NONE', #56, #56, #86, .T. ) ;
#159 = CARTESIAN_POINT ( 'NONE',  ( 1.396592535537253342E-14, 2.249639673992782854E-32, 4.000000000000000000 ) ) ;
#160 = AXIS2_PLACEMENT_3D ( 'NONE', #184, #115, #153 ) ;
#161 =( GEOMETRIC_REPRESENTATION_CONTEXT ( 3 ) GLOBAL_UNCERTAINTY_ASSIGNED_CONTEXT ( ( #6 ) ) GLOBAL_UNIT_ASSIGNED_CONTEXT ( ( #21, #38, #72 ) ) REPRESENTATION_CONTEXT ( 'NONE', 'WORKASPACE' ) );
#162 = CARTESIAN_POINT ( 'NONE',  ( 1.745740669421566678E-13, -6.123233995736766085E-15, 50.00000000000000000 ) ) ;
#163 = CC_DESIGN_PERSON_AND_ORGANIZATION_ASSIGNMENT ( #39, #62, ( #19 ) ) ;
#164 = AXIS2_PLACEMENT_3D ( 'NONE', #138, #44, #66 ) ;
#165 = CARTESIAN_POINT ( 'NONE',  ( -2.999999999999972022, 0.0000000000000000000, 7.872983346207422350 ) ) ;
#166 = CARTESIAN_POINT ( 'NONE',  ( 1.396592535537253027E-14, 0.0000000000000000000, 3.999999999999999112 ) ) ;
#167 = DIRECTION ( 'NONE',  ( 0.0000000000000000000, 1.000000000000000000, 0.0000000000000000000 ) ) ;
#168 = CARTESIAN_POINT ( 'NONE',  ( 1.745740669421566678E-13, 1.874699728327314346E-32, 50.00000000000000000 ) ) ;
#169 = DATE_AND_TIME ( #58, #122 ) ;
#170 = CARTESIAN_POINT ( 'NONE',  ( 0.0000000000000000000, 0.0000000000000000000, 0.0000000000000000000 ) ) ;
#171 = AXIS2_PLACEMENT_3D ( 'NONE', #159, #208, #174 ) ;
#172 = EDGE_LOOP ( 'NONE', ( #18 ) ) ;
#173 = ORIENTED_EDGE ( 'NONE', *, *, #11, .F. ) ;
#174 = DIRECTION ( 'NONE',  ( -4.275831445896958607E-31, -1.000000000000000000, -1.224646799147353207E-16 ) ) ;
#175 = ADVANCED_FACE ( 'NONE', ( #74, #109 ), #132, .T. ) ;
#176 = CARTESIAN_POINT ( 'NONE',  ( 1.396592535537253342E-14, 2.249639673992782854E-32, 4.000000000000000000 ) ) ;
#177 = DIRECTION ( 'NONE',  ( 1.000000000000000000, 0.0000000000000000000, -3.469446951953614189E-15 ) ) ;
#178 = CARTESIAN_POINT ( 'NONE',  ( 1.728283262727351074E-13, 2.999999999999995559, 49.50000000000000000 ) ) ;
#179 = DATE_AND_TIME ( #5, #17 ) ;
#180 = AXIS2_PLACEMENT_3D ( 'NONE', #123, #32, #87 ) ;
#181 = CIRCLE ( 'NONE', #211, 2.000000000000000000 ) ;
#182 = CARTESIAN_POINT ( 'NONE',  ( 1.745740669421566678E-13, -6.123233995736766085E-15, 50.00000000000000000 ) ) ;
#183 = APPROVAL_DATE_TIME ( #200, #8 ) ;
#184 = CARTESIAN_POINT ( 'NONE',  ( 1.396592535537253027E-14, 0.0000000000000000000, 3.999999999999999112 ) ) ;
#185 = CIRCLE ( 'NONE', #25, 2.500000000000001776 ) ;
#186 = APPROVAL ( #70, 'UNSPECIFIED' ) ;
#187 = LOCAL_TIME ( 8, 14, 40.00000000000000000, #137 ) ;
#188 = FACE_OUTER_BOUND ( 'NONE', #172, .T. ) ;
#189 = ORIENTED_EDGE ( 'NONE', *, *, #11, .T. ) ;
#190 = PERSON ( 'UNSPECIFIED', 'UNSPECIFIED', 'UNSPECIFIED', ('UNSPECIFIED'), ('UNSPECIFIED'), ('UNSPECIFIED') ) ;
#191 = AXIS2_PLACEMENT_3D ( 'NONE', #147, #3, #146 ) ;
#192 = MECHANICAL_CONTEXT ( 'NONE', #216, 'mechanical' ) ;
#193 = CC_DESIGN_SECURITY_CLASSIFICATION ( #148, ( #19 ) ) ;
#194 = MANIFOLD_SOLID_BREP ( 'Corps-Déplacer/Copier1[1]', #121 ) ;
#195 = PERSON_AND_ORGANIZATION ( #190, #40 ) ;
#196 = ADVANCED_FACE ( 'NONE', ( #54 ), #36, .T. ) ;
#197 = CARTESIAN_POINT ( 'NONE',  ( 1.745740669421566678E-13, 2.499999999999995559, 50.00000000000000000 ) ) ;
#198 = APPROVAL_ROLE ( '' ) ;
#199 = APPROVAL_ROLE ( '' ) ;
#200 = DATE_AND_TIME ( #154, #187 ) ;
#201 = DESIGN_CONTEXT ( 'detailed design', #12, 'design' ) ;
#202 = EDGE_LOOP ( 'NONE', ( #189 ) ) ;
#203 = DATE_TIME_ROLE ( 'creation_date' ) ;
#204 = EDGE_LOOP ( 'NONE', ( #143 ) ) ;
#205 = ORIENTED_EDGE ( 'NONE', *, *, #158, .T. ) ;
#206 = DIRECTION ( 'NONE',  ( 4.275831445896958607E-31, 1.000000000000000000, 1.224646799147353207E-16 ) ) ;
#207 = AXIS2_PLACEMENT_3D ( 'NONE', #170, #13, #206 ) ;
#208 = DIRECTION ( 'NONE',  ( 3.491481338843133355E-15, -1.224646799147353207E-16, 1.000000000000000000 ) ) ;
#209 = ADVANCED_FACE ( 'NONE', ( #83, #125 ), #53, .F. ) ;
#210 = DIRECTION ( 'NONE',  ( 3.491481338843133355E-15, -1.224646799147353207E-16, 1.000000000000000000 ) ) ;
#211 = AXIS2_PLACEMENT_3D ( 'NONE', #80, #47, #140 ) ;
#212 = COORDINATED_UNIVERSAL_TIME_OFFSET ( 1, 0, .AHEAD. ) ;
#213 = VERTEX_POINT ( 'NONE', #178 ) ;
#214 = EDGE_CURVE ( 'NONE', #149, #149, #107, .T. ) ;
#215 = CARTESIAN_POINT ( 'NONE',  ( 1.728283262727351074E-13, -6.062001655779398511E-15, 49.50000000000000000 ) ) ;
#216 = APPLICATION_CONTEXT ( 'configuration controlled 3d designs of mechanical parts and assemblies' ) ;
#217 = PERSON_AND_ORGANIZATION_ROLE ( 'creator' ) ;
#218 = FACE_OUTER_BOUND ( 'NONE', #124, .T. ) ;
#219 = DATE_AND_TIME ( #45, #57 ) ;
#220 = ORIENTED_EDGE ( 'NONE', *, *, #73, .T. ) ;
#221 = DIRECTION ( 'NONE',  ( -3.491481338843133355E-15, 1.224646799147353207E-16, -1.000000000000000000 ) ) ;
#222 = APPROVAL_PERSON_ORGANIZATION ( #195, #186, #23 ) ;
#223 = ORIENTED_EDGE ( 'NONE', *, *, #142, .T. ) ;
ENDSEC;
END-ISO-10303-21;
