ISO-10303-21;
HEADER;
FILE_DESCRIPTION (( 'STEP AP203' ),
    '1' );
FILE_NAME ('64393.step',
    '2021-11-10T07:14:40',
    ( '' ),
    ( '' ),
    'SwSTEP 2.0',
    'SolidWorks 2019',
    '' );
FILE_SCHEMA (( 'CONFIG_CONTROL_DESIGN' ));
ENDSEC;

DATA;
#1 = PERSON_AND_ORGANIZATION_ROLE ( 'creator' ) ;
#2 = CARTESIAN_POINT ( 'NONE',  ( 0.0000000000000000000, 0.0000000000000000000, 0.0000000000000000000 ) ) ;
#3 = AXIS2_PLACEMENT_3D ( 'NONE', #16, #219, #99 ) ;
#4 = ORIENTED_EDGE ( 'NONE', *, *, #120, .T. ) ;
#5 = PRODUCT_DEFINITION ( 'UNKNOWN', '', #111, #90 ) ;
#6 = AXIS2_PLACEMENT_3D ( 'NONE', #124, #188, #125 ) ;
#7 = ORIENTED_EDGE ( 'NONE', *, *, #150, .T. ) ;
#8 = AXIS2_PLACEMENT_3D ( 'NONE', #223, #167, #54 ) ;
#9 = EDGE_LOOP ( 'NONE', ( #4 ) ) ;
#10 = DATE_TIME_ROLE ( 'classification_date' ) ;
#11 = CYLINDRICAL_SURFACE ( 'NONE', #144, 2.999999999999999112 ) ;
#12 = PERSON_AND_ORGANIZATION ( #191, #127 ) ;
#13 = CARTESIAN_POINT ( 'NONE',  ( 0.0000000000000000000, 0.0000000000000000000, 0.0000000000000000000 ) ) ;
#14 = CARTESIAN_POINT ( 'NONE',  ( 0.0000000000000000000, 0.0000000000000000000, 0.0000000000000000000 ) ) ;
#15 = PERSON_AND_ORGANIZATION ( #191, #127 ) ;
#16 = CARTESIAN_POINT ( 'NONE',  ( 1.745740669421566678E-13, 1.874699728327314346E-32, 50.00000000000000000 ) ) ;
#17 = CC_DESIGN_PERSON_AND_ORGANIZATION_ASSIGNMENT ( #12, #87, ( #111 ) ) ;
#18 = AXIS2_PLACEMENT_3D ( 'NONE', #178, #97, #149 ) ;
#19 = DIRECTION ( 'NONE',  ( 0.0000000000000000000, 1.000000000000000000, 0.0000000000000000000 ) ) ;
#20 = FACE_OUTER_BOUND ( 'NONE', #108, .T. ) ;
#21 = VERTEX_POINT ( 'NONE', #141 ) ;
#22 = COORDINATED_UNIVERSAL_TIME_OFFSET ( 1, 0, .AHEAD. ) ;
#23 = CYLINDRICAL_SURFACE ( 'NONE', #6, 1.749999999999999778 ) ;
#24 = ADVANCED_FACE ( 'NONE', ( #113, #116 ), #11, .T. ) ;
#25 = CC_DESIGN_PERSON_AND_ORGANIZATION_ASSIGNMENT ( #53, #131, ( #147 ) ) ;
#26 = ADVANCED_FACE ( 'NONE', ( #152 ), #179, .F. ) ;
#27 = APPROVAL_PERSON_ORGANIZATION ( #37, #47, #139 ) ;
#28 = AXIS2_PLACEMENT_3D ( 'NONE', #2, #75, #121 ) ;
#29 = EDGE_LOOP ( 'NONE', ( #194 ) ) ;
#30 = EDGE_CURVE ( 'NONE', #52, #52, #86, .T. ) ;
#31 = CARTESIAN_POINT ( 'NONE',  ( 1.222018468595095885E-14, 0.0000000000000000000, 3.499999999999997780 ) ) ;
#32 = PERSON_AND_ORGANIZATION ( #191, #127 ) ;
#33 = ORIENTED_EDGE ( 'NONE', *, *, #120, .F. ) ;
#34 = APPLICATION_CONTEXT ( 'configuration controlled 3d designs of mechanical parts and assemblies' ) ;
#35 = PLANE ( 'NONE',  #3 ) ;
#36 = DIRECTION ( 'NONE',  ( -4.275831445896958607E-31, -1.000000000000000000, -1.224646799147353207E-16 ) ) ;
#37 = PERSON_AND_ORGANIZATION ( #191, #127 ) ;
#38 = FACE_OUTER_BOUND ( 'NONE', #196, .T. ) ;
#39 = VERTEX_POINT ( 'NONE', #189 ) ;
#40 =( NAMED_UNIT ( * ) SI_UNIT ( $, .STERADIAN. ) SOLID_ANGLE_UNIT ( ) );
#41 = AXIS2_PLACEMENT_3D ( 'NONE', #65, #214, #48 ) ;
#42 = CC_DESIGN_PERSON_AND_ORGANIZATION_ASSIGNMENT ( #218, #71, ( #93 ) ) ;
#43 = PRODUCT_DEFINITION_SHAPE ( 'NONE', 'NONE',  #5 ) ;
#44 = TOROIDAL_SURFACE ( 'NONE', #8, 9.750000000000001776, 8.000000000000000000 ) ;
#45 = CLOSED_SHELL ( 'NONE', ( #24, #145, #133, #143, #26 ) ) ;
#46 = ORIENTED_EDGE ( 'NONE', *, *, #73, .T. ) ;
#47 = APPROVAL ( #159, 'UNSPECIFIED' ) ;
#48 = DIRECTION ( 'NONE',  ( 1.000000000000000000, 0.0000000000000000000, -3.469446951953614583E-15 ) ) ;
#49 = DATE_AND_TIME ( #202, #161 ) ;
#50 = MANIFOLD_SOLID_BREP ( 'Corps-Déplacer/Copier1[2]', #62 ) ;
#51 = EDGE_LOOP ( 'NONE', ( #129 ) ) ;
#52 = VERTEX_POINT ( 'NONE', #117 ) ;
#53 = PERSON_AND_ORGANIZATION ( #191, #127 ) ;
#54 = DIRECTION ( 'NONE',  ( 1.000000000000000000, 0.0000000000000000000, -3.491481338843132961E-15 ) ) ;
#55 = DIRECTION ( 'NONE',  ( -4.275831445896958607E-31, -1.000000000000000000, -1.224646799147353207E-16 ) ) ;
#56 = CARTESIAN_POINT ( 'NONE',  ( -2.999999999999972022, 0.0000000000000000000, 7.793891009329422026 ) ) ;
#57 = DIRECTION ( 'NONE',  ( 3.491481338843133355E-15, -1.224646799147353207E-16, 1.000000000000000000 ) ) ;
#58 = CC_DESIGN_APPROVAL ( #47, ( #5 ) ) ;
#59 = APPROVAL ( #137, 'UNSPECIFIED' ) ;
#60 = APPROVAL ( #165, 'UNSPECIFIED' ) ;
#61 = EDGE_LOOP ( 'NONE', ( #175 ) ) ;
#62 = CLOSED_SHELL ( 'NONE', ( #172, #208, #162 ) ) ;
#63 = DIRECTION ( 'NONE',  ( -4.275831445896958607E-31, -1.000000000000000000, -1.224646799147353207E-16 ) ) ;
#64 = APPROVAL_DATE_TIME ( #49, #60 ) ;
#65 = CARTESIAN_POINT ( 'NONE',  ( 1.222018468595095885E-14, 0.0000000000000000000, 3.499999999999997780 ) ) ;
#66 = APPROVAL_ROLE ( '' ) ;
#67 = CIRCLE ( 'NONE', #158, 2.999999999999999112 ) ;
#68 = CARTESIAN_POINT ( 'NONE',  ( 1.745740669421566678E-13, 2.499999999999995559, 50.00000000000000000 ) ) ;
#69 = FACE_BOUND ( 'NONE', #112, .T. ) ;
#70 = CARTESIAN_POINT ( 'NONE',  ( 1.222018468595096517E-14, -5.059610138265696562E-16, 3.499999999999999556 ) ) ;
#71 = PERSON_AND_ORGANIZATION_ROLE ( 'design_owner' ) ;
#72 = COORDINATED_UNIVERSAL_TIME_OFFSET ( 1, 0, .AHEAD. ) ;
#73 = EDGE_CURVE ( 'NONE', #100, #100, #103, .T. ) ;
#74 = CC_DESIGN_APPROVAL ( #60, ( #147 ) ) ;
#75 = DIRECTION ( 'NONE',  ( 0.0000000000000000000, 0.0000000000000000000, 1.000000000000000000 ) ) ;
#76 = CONICAL_SURFACE ( 'NONE', #210, 2.500000000000001776, 0.7853981633974479459 ) ;
#77 = AXIS2_PLACEMENT_3D ( 'NONE', #148, #199, #63 ) ;
#78 = EDGE_LOOP ( 'NONE', ( #46 ) ) ;
#79 = EDGE_LOOP ( 'NONE', ( #209 ) ) ;
#80 = LOCAL_TIME ( 8, 14, 40.00000000000000000, #118 ) ;
#81 = DIRECTION ( 'NONE',  ( 4.275831445896958607E-31, 1.000000000000000000, 1.224646799147353207E-16 ) ) ;
#82 = DATE_AND_TIME ( #98, #80 ) ;
#83 = DIRECTION ( 'NONE',  ( -3.491481338843133355E-15, 1.224646799147353207E-16, -1.000000000000000000 ) ) ;
#84 = CALENDAR_DATE ( 2021, 10, 11 ) ;
#85 = FACE_OUTER_BOUND ( 'NONE', #9, .T. ) ;
#86 = CIRCLE ( 'NONE', #207, 1.749999999999999778 ) ;
#87 = PERSON_AND_ORGANIZATION_ROLE ( 'design_supplier' ) ;
#88 = DIRECTION ( 'NONE',  ( -3.491481338843133355E-15, 1.224646799147353207E-16, -1.000000000000000000 ) ) ;
#89 = DIRECTION ( 'NONE',  ( 3.491481338843133355E-15, -0.0000000000000000000, 1.000000000000000000 ) ) ;
#90 = DESIGN_CONTEXT ( 'detailed design', #211, 'design' ) ;
#91 = APPLICATION_PROTOCOL_DEFINITION ( 'international standard', 'config_control_design', 1994, #211 ) ;
#92 = APPROVAL_PERSON_ORGANIZATION ( #32, #59, #66 ) ;
#93 = PRODUCT ( '64393', '64393', '', ( #222 ) ) ;
#94 = ORIENTED_EDGE ( 'NONE', *, *, #221, .T. ) ;
#95 = DIRECTION ( 'NONE',  ( 3.491481338843133355E-15, -0.0000000000000000000, 1.000000000000000000 ) ) ;
#96 = CALENDAR_DATE ( 2021, 10, 11 ) ;
#97 = DIRECTION ( 'NONE',  ( -3.491481338843133355E-15, 1.224646799147353207E-16, -1.000000000000000000 ) ) ;
#98 = CALENDAR_DATE ( 2021, 10, 11 ) ;
#99 = DIRECTION ( 'NONE',  ( 4.275831445896958607E-31, 1.000000000000000000, 1.224646799147353207E-16 ) ) ;
#100 = VERTEX_POINT ( 'NONE', #109 ) ;
#101 = CARTESIAN_POINT ( 'NONE',  ( 1.745740669421566678E-13, -6.123233995736766085E-15, 50.00000000000000000 ) ) ;
#102 = FACE_OUTER_BOUND ( 'NONE', #216, .T. ) ;
#103 = CIRCLE ( 'NONE', #18, 3.000000000000001776 ) ;
#104 = EDGE_CURVE ( 'NONE', #39, #39, #174, .T. ) ;
#105 = DATE_AND_TIME ( #84, #153 ) ;
#106 = DATE_AND_TIME ( #96, #187 ) ;
#107 = VERTEX_POINT ( 'NONE', #68 ) ;
#108 = EDGE_LOOP ( 'NONE', ( #130 ) ) ;
#109 = CARTESIAN_POINT ( 'NONE',  ( 1.728283262727351074E-13, 2.999999999999995559, 49.50000000000000000 ) ) ;
#110 = CIRCLE ( 'NONE', #176, 2.500000000000001776 ) ;
#111 = PRODUCT_DEFINITION_FORMATION_WITH_SPECIFIED_SOURCE ( 'ANY', '', #93, .NOT_KNOWN. ) ;
#112 = EDGE_LOOP ( 'NONE', ( #7 ) ) ;
#113 = FACE_OUTER_BOUND ( 'NONE', #78, .T. ) ;
#114 = CARTESIAN_POINT ( 'NONE',  ( 2.721222501605091353E-14, 0.0000000000000000000, 7.793891009329411368 ) ) ;
#115 = PERSON_AND_ORGANIZATION_ROLE ( 'creator' ) ;
#116 = FACE_OUTER_BOUND ( 'NONE', #181, .T. ) ;
#117 = CARTESIAN_POINT ( 'NONE',  ( 1.750000000000011990, 0.0000000000000000000, 3.499999999999992006 ) ) ;
#118 = COORDINATED_UNIVERSAL_TIME_OFFSET ( 1, 0, .AHEAD. ) ;
#119 = FACE_OUTER_BOUND ( 'NONE', #51, .T. ) ;
#120 = EDGE_CURVE ( 'NONE', #157, #157, #67, .T. ) ;
#121 = DIRECTION ( 'NONE',  ( 1.000000000000000000, 0.0000000000000000000, 0.0000000000000000000 ) ) ;
#122 = COORDINATED_UNIVERSAL_TIME_OFFSET ( 1, 0, .AHEAD. ) ;
#123 = CC_DESIGN_APPROVAL ( #59, ( #111 ) ) ;
#124 = CARTESIAN_POINT ( 'NONE',  ( 0.0000000000000000000, 0.0000000000000000000, 0.0000000000000000000 ) ) ;
#125 = DIRECTION ( 'NONE',  ( 1.000000000000000000, 0.0000000000000000000, -3.491481338843133355E-15 ) ) ;
#126 = ADVANCED_BREP_SHAPE_REPRESENTATION ( '64393', ( #193, #50, #28 ), #217 ) ;
#127 = ORGANIZATION ( 'UNSPECIFIED', 'UNSPECIFIED', '' ) ;
#128 = CC_DESIGN_PERSON_AND_ORGANIZATION_ASSIGNMENT ( #186, #115, ( #111 ) ) ;
#129 = ORIENTED_EDGE ( 'NONE', *, *, #73, .F. ) ;
#130 = ORIENTED_EDGE ( 'NONE', *, *, #30, .F. ) ;
#131 = PERSON_AND_ORGANIZATION_ROLE ( 'classification_officer' ) ;
#132 = DIRECTION ( 'NONE',  ( -3.491481338843133355E-15, 0.0000000000000000000, -1.000000000000000000 ) ) ;
#133 = ADVANCED_FACE ( 'NONE', ( #38 ), #35, .F. ) ;
#134 = CIRCLE ( 'NONE', #195, 1.750000000000000000 ) ;
#135 = PRODUCT_RELATED_PRODUCT_CATEGORY ( 'detail', '', ( #93 ) ) ;
#136 =( LENGTH_UNIT ( ) NAMED_UNIT ( * ) SI_UNIT ( .MILLI., .METRE. ) );
#137 = APPROVAL_STATUS ( 'not_yet_approved' ) ;
#138 = DIRECTION ( 'NONE',  ( 0.0000000000000000000, 1.000000000000000000, 0.0000000000000000000 ) ) ;
#139 = APPROVAL_ROLE ( '' ) ;
#140 = PLANE ( 'NONE',  #190 ) ;
#141 = CARTESIAN_POINT ( 'NONE',  ( 1.750000000000000000, 0.0000000000000000000, -6.110092342975483372E-15 ) ) ;
#142 = APPROVAL_PERSON_ORGANIZATION ( #15, #60, #151 ) ;
#143 = ADVANCED_FACE ( 'NONE', ( #166, #85 ), #44, .F. ) ;
#144 = AXIS2_PLACEMENT_3D ( 'NONE', #13, #83, #81 ) ;
#145 = ADVANCED_FACE ( 'NONE', ( #119, #69 ), #76, .T. ) ;
#146 = ORIENTED_EDGE ( 'NONE', *, *, #104, .F. ) ;
#147 = SECURITY_CLASSIFICATION ( '', '', #170 ) ;
#148 = CARTESIAN_POINT ( 'NONE',  ( 1.222018468595096517E-14, -5.059610138265696562E-16, 3.499999999999999556 ) ) ;
#149 = DIRECTION ( 'NONE',  ( 0.0000000000000000000, 1.000000000000000000, 0.0000000000000000000 ) ) ;
#150 = EDGE_CURVE ( 'NONE', #107, #107, #110, .T. ) ;
#151 = APPROVAL_ROLE ( '' ) ;
#152 = FACE_OUTER_BOUND ( 'NONE', #197, .T. ) ;
#153 = LOCAL_TIME ( 8, 14, 40.00000000000000000, #185 ) ;
#154 = APPLICATION_PROTOCOL_DEFINITION ( 'international standard', 'config_control_design', 1994, #34 ) ;
#155 = FACE_OUTER_BOUND ( 'NONE', #29, .T. ) ;
#156 = PERSON_AND_ORGANIZATION ( #191, #127 ) ;
#157 = VERTEX_POINT ( 'NONE', #56 ) ;
#158 = AXIS2_PLACEMENT_3D ( 'NONE', #114, #132, #164 ) ;
#159 = APPROVAL_STATUS ( 'not_yet_approved' ) ;
#160 = CC_DESIGN_DATE_AND_TIME_ASSIGNMENT ( #82, #10, ( #147 ) ) ;
#161 = LOCAL_TIME ( 8, 14, 40.00000000000000000, #22 ) ;
#162 = ADVANCED_FACE ( 'NONE', ( #155 ), #140, .F. ) ;
#163 = CALENDAR_DATE ( 2021, 10, 11 ) ;
#164 = DIRECTION ( 'NONE',  ( -1.000000000000000000, 0.0000000000000000000, 3.469446951953615372E-15 ) ) ;
#165 = APPROVAL_STATUS ( 'not_yet_approved' ) ;
#166 = FACE_OUTER_BOUND ( 'NONE', #61, .T. ) ;
#167 = DIRECTION ( 'NONE',  ( 3.491481338843133355E-15, -0.0000000000000000000, 1.000000000000000000 ) ) ;
#168 = PLANE ( 'NONE',  #200 ) ;
#169 = APPROVAL_DATE_TIME ( #105, #47 ) ;
#170 = SECURITY_CLASSIFICATION_LEVEL ( 'unclassified' ) ;
#171 = UNCERTAINTY_MEASURE_WITH_UNIT (LENGTH_MEASURE( 1.000000000000000082E-05 ), #136, 'distance_accuracy_value', 'NONE');
#172 = ADVANCED_FACE ( 'NONE', ( #220 ), #168, .T. ) ;
#173 = CC_DESIGN_DATE_AND_TIME_ASSIGNMENT ( #106, #215, ( #5 ) ) ;
#174 = CIRCLE ( 'NONE', #41, 1.749999999999999778 ) ;
#175 = ORIENTED_EDGE ( 'NONE', *, *, #104, .T. ) ;
#176 = AXIS2_PLACEMENT_3D ( 'NONE', #203, #88, #19 ) ;
#177 = CC_DESIGN_PERSON_AND_ORGANIZATION_ASSIGNMENT ( #156, #1, ( #5 ) ) ;
#178 = CARTESIAN_POINT ( 'NONE',  ( 1.728283262727351074E-13, -6.062001655779398511E-15, 49.50000000000000000 ) ) ;
#179 = PLANE ( 'NONE',  #77 ) ;
#180 = APPROVAL_DATE_TIME ( #205, #59 ) ;
#181 = EDGE_LOOP ( 'NONE', ( #33 ) ) ;
#182 =( NAMED_UNIT ( * ) PLANE_ANGLE_UNIT ( ) SI_UNIT ( $, .RADIAN. ) );
#183 = DIRECTION ( 'NONE',  ( -3.491481338843133355E-15, 1.224646799147353207E-16, -1.000000000000000000 ) ) ;
#184 = DIRECTION ( 'NONE',  ( 3.491481338843133355E-15, -1.224646799147353207E-16, 1.000000000000000000 ) ) ;
#185 = COORDINATED_UNIVERSAL_TIME_OFFSET ( 1, 0, .AHEAD. ) ;
#186 = PERSON_AND_ORGANIZATION ( #191, #127 ) ;
#187 = LOCAL_TIME ( 8, 14, 40.00000000000000000, #72 ) ;
#188 = DIRECTION ( 'NONE',  ( 3.491481338843133355E-15, -0.0000000000000000000, 1.000000000000000000 ) ) ;
#189 = CARTESIAN_POINT ( 'NONE',  ( 1.750000000000011990, 0.0000000000000000000, 3.499999999999992006 ) ) ;
#190 = AXIS2_PLACEMENT_3D ( 'NONE', #206, #57, #55 ) ;
#191 = PERSON ( 'UNSPECIFIED', 'UNSPECIFIED', 'UNSPECIFIED', ('UNSPECIFIED'), ('UNSPECIFIED'), ('UNSPECIFIED') ) ;
#192 = CC_DESIGN_SECURITY_CLASSIFICATION ( #147, ( #111 ) ) ;
#193 = MANIFOLD_SOLID_BREP ( 'Corps-Déplacer/Copier1[1]', #45 ) ;
#194 = ORIENTED_EDGE ( 'NONE', *, *, #221, .F. ) ;
#195 = AXIS2_PLACEMENT_3D ( 'NONE', #14, #89, #204 ) ;
#196 = EDGE_LOOP ( 'NONE', ( #201 ) ) ;
#197 = EDGE_LOOP ( 'NONE', ( #146 ) ) ;
#198 = SHAPE_DEFINITION_REPRESENTATION ( #43, #126 ) ;
#199 = DIRECTION ( 'NONE',  ( 3.491481338843133355E-15, -1.224646799147353207E-16, 1.000000000000000000 ) ) ;
#200 = AXIS2_PLACEMENT_3D ( 'NONE', #70, #184, #36 ) ;
#201 = ORIENTED_EDGE ( 'NONE', *, *, #150, .F. ) ;
#202 = CALENDAR_DATE ( 2021, 10, 11 ) ;
#203 = CARTESIAN_POINT ( 'NONE',  ( 1.745740669421566678E-13, -6.123233995736766085E-15, 50.00000000000000000 ) ) ;
#204 = DIRECTION ( 'NONE',  ( 1.000000000000000000, 0.0000000000000000000, -3.491481338843133355E-15 ) ) ;
#205 = DATE_AND_TIME ( #163, #212 ) ;
#206 = CARTESIAN_POINT ( 'NONE',  ( -3.206816838010677856E-31, 1.124799933034399755E-32, -9.184688465421452921E-17 ) ) ;
#207 = AXIS2_PLACEMENT_3D ( 'NONE', #31, #95, #213 ) ;
#208 = ADVANCED_FACE ( 'NONE', ( #102, #20 ), #23, .T. ) ;
#209 = ORIENTED_EDGE ( 'NONE', *, *, #30, .T. ) ;
#210 = AXIS2_PLACEMENT_3D ( 'NONE', #101, #183, #138 ) ;
#211 = APPLICATION_CONTEXT ( 'configuration controlled 3d designs of mechanical parts and assemblies' ) ;
#212 = LOCAL_TIME ( 8, 14, 40.00000000000000000, #122 ) ;
#213 = DIRECTION ( 'NONE',  ( 1.000000000000000000, 0.0000000000000000000, -3.469446951953614583E-15 ) ) ;
#214 = DIRECTION ( 'NONE',  ( 3.491481338843133355E-15, -0.0000000000000000000, 1.000000000000000000 ) ) ;
#215 = DATE_TIME_ROLE ( 'creation_date' ) ;
#216 = EDGE_LOOP ( 'NONE', ( #94 ) ) ;
#217 =( GEOMETRIC_REPRESENTATION_CONTEXT ( 3 ) GLOBAL_UNCERTAINTY_ASSIGNED_CONTEXT ( ( #171 ) ) GLOBAL_UNIT_ASSIGNED_CONTEXT ( ( #136, #182, #40 ) ) REPRESENTATION_CONTEXT ( 'NONE', 'WORKASPACE' ) );
#218 = PERSON_AND_ORGANIZATION ( #191, #127 ) ;
#219 = DIRECTION ( 'NONE',  ( -3.491481338843133355E-15, 1.224646799147353207E-16, -1.000000000000000000 ) ) ;
#220 = FACE_OUTER_BOUND ( 'NONE', #79, .T. ) ;
#221 = EDGE_CURVE ( 'NONE', #21, #21, #134, .T. ) ;
#222 = MECHANICAL_CONTEXT ( 'NONE', #34, 'mechanical' ) ;
#223 = CARTESIAN_POINT ( 'NONE',  ( 1.222018468595096201E-14, 0.0000000000000000000, 3.499999999999998668 ) ) ;
ENDSEC;
END-ISO-10303-21;
