ISO-10303-21;
HEADER;
FILE_DESCRIPTION (( 'STEP AP203' ),
    '1' );
FILE_NAME ('64392.step',
    '2021-11-10T07:14:39',
    ( '' ),
    ( '' ),
    'SwSTEP 2.0',
    'SolidWorks 2019',
    '' );
FILE_SCHEMA (( 'CONFIG_CONTROL_DESIGN' ));
ENDSEC;

DATA;
#1 = CARTESIAN_POINT ( 'NONE',  ( 1.047444401652939691E-14, 0.0000000000000000000, 2.999999999999999112 ) ) ;
#2 = ORIENTED_EDGE ( 'NONE', *, *, #107, .T. ) ;
#3 =( NAMED_UNIT ( * ) SI_UNIT ( $, .STERADIAN. ) SOLID_ANGLE_UNIT ( ) );
#4 = AXIS2_PLACEMENT_3D ( 'NONE', #60, #25, #98 ) ;
#5 = APPLICATION_PROTOCOL_DEFINITION ( 'international standard', 'config_control_design', 1994, #103 ) ;
#6 = PLANE ( 'NONE',  #4 ) ;
#7 =( LENGTH_UNIT ( ) NAMED_UNIT ( * ) SI_UNIT ( .MILLI., .METRE. ) );
#8 = UNCERTAINTY_MEASURE_WITH_UNIT (LENGTH_MEASURE( 1.000000000000000082E-05 ), #7, 'distance_accuracy_value', 'NONE');
#9 = CC_DESIGN_PERSON_AND_ORGANIZATION_ASSIGNMENT ( #176, #102, ( #23 ) ) ;
#10 = VERTEX_POINT ( 'NONE', #134 ) ;
#11 = AXIS2_PLACEMENT_3D ( 'NONE', #15, #58, #26 ) ;
#12 = PERSON_AND_ORGANIZATION ( #37, #171 ) ;
#13 = DIRECTION ( 'NONE',  ( -3.491481338843133355E-15, 1.224646799147353207E-16, -1.000000000000000000 ) ) ;
#14 = APPROVAL_DATE_TIME ( #105, #209 ) ;
#15 = CARTESIAN_POINT ( 'NONE',  ( 1.728283262727351074E-13, -6.062001655779398511E-15, 49.50000000000000000 ) ) ;
#16 = CC_DESIGN_PERSON_AND_ORGANIZATION_ASSIGNMENT ( #12, #88, ( #79 ) ) ;
#17 = DATE_AND_TIME ( #219, #178 ) ;
#18 = PERSON_AND_ORGANIZATION ( #37, #171 ) ;
#19 = LOCAL_TIME ( 8, 14, 39.00000000000000000, #35 ) ;
#20 = DIRECTION ( 'NONE',  ( -4.275831445896958607E-31, -1.000000000000000000, -1.224646799147353207E-16 ) ) ;
#21 = FACE_OUTER_BOUND ( 'NONE', #191, .T. ) ;
#22 = ADVANCED_FACE ( 'NONE', ( #163 ), #38, .F. ) ;
#23 = PRODUCT_DEFINITION_FORMATION_WITH_SPECIFIED_SOURCE ( 'ANY', '', #95, .NOT_KNOWN. ) ;
#24 = CARTESIAN_POINT ( 'NONE',  ( 1.728283262727351074E-13, 2.999999999999995559, 49.50000000000000000 ) ) ;
#25 = DIRECTION ( 'NONE',  ( 3.491481338843133355E-15, -1.224646799147353207E-16, 1.000000000000000000 ) ) ;
#26 = DIRECTION ( 'NONE',  ( 0.0000000000000000000, 1.000000000000000000, 0.0000000000000000000 ) ) ;
#27 = DIRECTION ( 'NONE',  ( 3.491481338843133355E-15, -0.0000000000000000000, 1.000000000000000000 ) ) ;
#28 = VERTEX_POINT ( 'NONE', #99 ) ;
#29 = PRODUCT_RELATED_PRODUCT_CATEGORY ( 'detail', '', ( #95 ) ) ;
#30 = APPLICATION_PROTOCOL_DEFINITION ( 'international standard', 'config_control_design', 1994, #92 ) ;
#31 = APPROVAL_ROLE ( '' ) ;
#32 = PLANE ( 'NONE',  #164 ) ;
#33 = CALENDAR_DATE ( 2021, 10, 11 ) ;
#34 = CIRCLE ( 'NONE', #57, 1.499999999999999556 ) ;
#35 = COORDINATED_UNIVERSAL_TIME_OFFSET ( 1, 0, .AHEAD. ) ;
#36 = EDGE_LOOP ( 'NONE', ( #40 ) ) ;
#37 = PERSON ( 'UNSPECIFIED', 'UNSPECIFIED', 'UNSPECIFIED', ('UNSPECIFIED'), ('UNSPECIFIED'), ('UNSPECIFIED') ) ;
#38 = PLANE ( 'NONE',  #65 ) ;
#39 = AXIS2_PLACEMENT_3D ( 'NONE', #116, #152, #216 ) ;
#40 = ORIENTED_EDGE ( 'NONE', *, *, #51, .T. ) ;
#41 = ORIENTED_EDGE ( 'NONE', *, *, #43, .F. ) ;
#42 = DIRECTION ( 'NONE',  ( 3.491481338843133355E-15, -0.0000000000000000000, 1.000000000000000000 ) ) ;
#43 = EDGE_CURVE ( 'NONE', #28, #28, #34, .T. ) ;
#44 = VERTEX_POINT ( 'NONE', #146 ) ;
#45 = ADVANCED_FACE ( 'NONE', ( #184, #84 ), #212, .T. ) ;
#46 = MANIFOLD_SOLID_BREP ( 'Corps-Déplacer/Copier1[1]', #135 ) ;
#47 = CARTESIAN_POINT ( 'NONE',  ( 1.047444401652940007E-14, -4.336808689942025625E-16, 3.000000000000000000 ) ) ;
#48 = FACE_OUTER_BOUND ( 'NONE', #56, .T. ) ;
#49 = DIRECTION ( 'NONE',  ( 1.000000000000000000, 0.0000000000000000000, -3.491481338843133355E-15 ) ) ;
#50 = PERSON_AND_ORGANIZATION ( #37, #171 ) ;
#51 = EDGE_CURVE ( 'NONE', #10, #10, #203, .T. ) ;
#52 = SECURITY_CLASSIFICATION_LEVEL ( 'unclassified' ) ;
#53 = ORIENTED_EDGE ( 'NONE', *, *, #180, .F. ) ;
#54 = CC_DESIGN_PERSON_AND_ORGANIZATION_ASSIGNMENT ( #217, #204, ( #69 ) ) ;
#55 = EDGE_LOOP ( 'NONE', ( #2 ) ) ;
#56 = EDGE_LOOP ( 'NONE', ( #206 ) ) ;
#57 = AXIS2_PLACEMENT_3D ( 'NONE', #87, #119, #153 ) ;
#58 = DIRECTION ( 'NONE',  ( -3.491481338843133355E-15, 1.224646799147353207E-16, -1.000000000000000000 ) ) ;
#59 = CC_DESIGN_PERSON_AND_ORGANIZATION_ASSIGNMENT ( #50, #190, ( #23 ) ) ;
#60 = CARTESIAN_POINT ( 'NONE',  ( 1.047444401652940007E-14, -4.336808689942025625E-16, 3.000000000000000000 ) ) ;
#61 = ADVANCED_FACE ( 'NONE', ( #161, #113 ), #91, .F. ) ;
#62 = FACE_OUTER_BOUND ( 'NONE', #177, .T. ) ;
#63 = AXIS2_PLACEMENT_3D ( 'NONE', #81, #27, #124 ) ;
#64 =( NAMED_UNIT ( * ) PLANE_ANGLE_UNIT ( ) SI_UNIT ( $, .RADIAN. ) );
#65 = AXIS2_PLACEMENT_3D ( 'NONE', #112, #110, #20 ) ;
#66 = DATE_AND_TIME ( #220, #143 ) ;
#67 = CIRCLE ( 'NONE', #192, 2.999999999999999112 ) ;
#68 = COORDINATED_UNIVERSAL_TIME_OFFSET ( 1, 0, .AHEAD. ) ;
#69 = PRODUCT_DEFINITION ( 'UNKNOWN', '', #23, #198 ) ;
#70 = EDGE_LOOP ( 'NONE', ( #160 ) ) ;
#71 = COORDINATED_UNIVERSAL_TIME_OFFSET ( 1, 0, .AHEAD. ) ;
#72 = CC_DESIGN_APPROVAL ( #111, ( #23 ) ) ;
#73 = EDGE_LOOP ( 'NONE', ( #89 ) ) ;
#74 = ADVANCED_FACE ( 'NONE', ( #48 ), #32, .T. ) ;
#75 = CYLINDRICAL_SURFACE ( 'NONE', #120, 2.999999999999999112 ) ;
#76 = AXIS2_PLACEMENT_3D ( 'NONE', #121, #132, #151 ) ;
#77 = APPROVAL ( #80, 'UNSPECIFIED' ) ;
#78 = DIRECTION ( 'NONE',  ( -3.491481338843133355E-15, 1.224646799147353207E-16, -1.000000000000000000 ) ) ;
#79 = SECURITY_CLASSIFICATION ( '', '', #52 ) ;
#80 = APPROVAL_STATUS ( 'not_yet_approved' ) ;
#81 = CARTESIAN_POINT ( 'NONE',  ( 1.047444401652939375E-14, 0.0000000000000000000, 2.999999999999998224 ) ) ;
#82 = ORIENTED_EDGE ( 'NONE', *, *, #107, .F. ) ;
#83 = VERTEX_POINT ( 'NONE', #24 ) ;
#84 = FACE_BOUND ( 'NONE', #36, .T. ) ;
#85 = ADVANCED_FACE ( 'NONE', ( #207, #21 ), #75, .T. ) ;
#86 = CARTESIAN_POINT ( 'NONE',  ( 0.0000000000000000000, 0.0000000000000000000, 0.0000000000000000000 ) ) ;
#87 = CARTESIAN_POINT ( 'NONE',  ( 1.047444401652939375E-14, 0.0000000000000000000, 2.999999999999998224 ) ) ;
#88 = PERSON_AND_ORGANIZATION_ROLE ( 'classification_officer' ) ;
#89 = ORIENTED_EDGE ( 'NONE', *, *, #201, .F. ) ;
#90 = APPROVAL_STATUS ( 'not_yet_approved' ) ;
#91 = TOROIDAL_SURFACE ( 'NONE', #108, 9.500000000000001776, 8.000000000000000000 ) ;
#92 = APPLICATION_CONTEXT ( 'configuration controlled 3d designs of mechanical parts and assemblies' ) ;
#93 =( GEOMETRIC_REPRESENTATION_CONTEXT ( 3 ) GLOBAL_UNCERTAINTY_ASSIGNED_CONTEXT ( ( #8 ) ) GLOBAL_UNIT_ASSIGNED_CONTEXT ( ( #7, #64, #3 ) ) REPRESENTATION_CONTEXT ( 'NONE', 'WORKASPACE' ) );
#94 = EDGE_CURVE ( 'NONE', #83, #83, #167, .T. ) ;
#95 = PRODUCT ( '64392', '64392', '', ( #165 ) ) ;
#96 = LOCAL_TIME ( 8, 14, 39.00000000000000000, #71 ) ;
#97 = CC_DESIGN_PERSON_AND_ORGANIZATION_ASSIGNMENT ( #183, #181, ( #95 ) ) ;
#98 = DIRECTION ( 'NONE',  ( -4.275831445896958607E-31, -1.000000000000000000, -1.224646799147353207E-16 ) ) ;
#99 = CARTESIAN_POINT ( 'NONE',  ( 1.500000000000009992, 0.0000000000000000000, 2.999999999999993339 ) ) ;
#100 = CARTESIAN_POINT ( 'NONE',  ( 1.500000000000009992, 0.0000000000000000000, 2.999999999999993339 ) ) ;
#101 = DIRECTION ( 'NONE',  ( 4.275831445896958607E-31, 1.000000000000000000, 1.224646799147353207E-16 ) ) ;
#102 = PERSON_AND_ORGANIZATION_ROLE ( 'design_supplier' ) ;
#103 = APPLICATION_CONTEXT ( 'configuration controlled 3d designs of mechanical parts and assemblies' ) ;
#104 = CARTESIAN_POINT ( 'NONE',  ( 1.745740669421566678E-13, -6.123233995736766085E-15, 50.00000000000000000 ) ) ;
#105 = DATE_AND_TIME ( #33, #96 ) ;
#106 = SHAPE_DEFINITION_REPRESENTATION ( #127, #149 ) ;
#107 = EDGE_CURVE ( 'NONE', #155, #155, #67, .T. ) ;
#108 = AXIS2_PLACEMENT_3D ( 'NONE', #1, #42, #185 ) ;
#109 = PERSON_AND_ORGANIZATION ( #37, #171 ) ;
#110 = DIRECTION ( 'NONE',  ( 3.491481338843133355E-15, -1.224646799147353207E-16, 1.000000000000000000 ) ) ;
#111 = APPROVAL ( #202, 'UNSPECIFIED' ) ;
#112 = CARTESIAN_POINT ( 'NONE',  ( -3.206816838010677856E-31, 1.124799933034399755E-32, -9.184688465421452921E-17 ) ) ;
#113 = FACE_OUTER_BOUND ( 'NONE', #55, .T. ) ;
#114 = EDGE_LOOP ( 'NONE', ( #53 ) ) ;
#115 = CC_DESIGN_APPROVAL ( #77, ( #69 ) ) ;
#116 = CARTESIAN_POINT ( 'NONE',  ( 0.0000000000000000000, 0.0000000000000000000, 0.0000000000000000000 ) ) ;
#117 = CC_DESIGN_DATE_AND_TIME_ASSIGNMENT ( #66, #142, ( #79 ) ) ;
#118 = ORIENTED_EDGE ( 'NONE', *, *, #51, .F. ) ;
#119 = DIRECTION ( 'NONE',  ( 3.491481338843133355E-15, -0.0000000000000000000, 1.000000000000000000 ) ) ;
#120 = AXIS2_PLACEMENT_3D ( 'NONE', #86, #129, #174 ) ;
#121 = CARTESIAN_POINT ( 'NONE',  ( 0.0000000000000000000, 0.0000000000000000000, 0.0000000000000000000 ) ) ;
#122 = DIRECTION ( 'NONE',  ( 3.491481338843133355E-15, -1.224646799147353207E-16, 1.000000000000000000 ) ) ;
#123 = ADVANCED_FACE ( 'NONE', ( #211, #215 ), #148, .T. ) ;
#124 = DIRECTION ( 'NONE',  ( 1.000000000000000000, 0.0000000000000000000, -3.469446951953615372E-15 ) ) ;
#125 = AXIS2_PLACEMENT_3D ( 'NONE', #214, #196, #49 ) ;
#126 = APPROVAL_ROLE ( '' ) ;
#127 = PRODUCT_DEFINITION_SHAPE ( 'NONE', 'NONE',  #69 ) ;
#128 = DATE_AND_TIME ( #175, #19 ) ;
#129 = DIRECTION ( 'NONE',  ( -3.491481338843133355E-15, 1.224646799147353207E-16, -1.000000000000000000 ) ) ;
#130 = CC_DESIGN_APPROVAL ( #209, ( #79 ) ) ;
#131 = ORIENTED_EDGE ( 'NONE', *, *, #94, .F. ) ;
#132 = DIRECTION ( 'NONE',  ( 0.0000000000000000000, 0.0000000000000000000, 1.000000000000000000 ) ) ;
#133 = CARTESIAN_POINT ( 'NONE',  ( 1.745740669421566678E-13, 1.874699728327314346E-32, 50.00000000000000000 ) ) ;
#134 = CARTESIAN_POINT ( 'NONE',  ( 1.745740669421566678E-13, 2.499999999999995559, 50.00000000000000000 ) ) ;
#135 = CLOSED_SHELL ( 'NONE', ( #85, #45, #144, #61, #141 ) ) ;
#136 = APPROVAL_PERSON_ORGANIZATION ( #18, #209, #126 ) ;
#137 = PERSON_AND_ORGANIZATION ( #37, #171 ) ;
#138 = DIRECTION ( 'NONE',  ( 0.0000000000000000000, 1.000000000000000000, 0.0000000000000000000 ) ) ;
#139 = AXIS2_PLACEMENT_3D ( 'NONE', #133, #78, #101 ) ;
#140 = DATE_TIME_ROLE ( 'creation_date' ) ;
#141 = ADVANCED_FACE ( 'NONE', ( #62 ), #6, .F. ) ;
#142 = DATE_TIME_ROLE ( 'classification_date' ) ;
#143 = LOCAL_TIME ( 8, 14, 39.00000000000000000, #158 ) ;
#144 = ADVANCED_FACE ( 'NONE', ( #170 ), #169, .F. ) ;
#145 = CIRCLE ( 'NONE', #63, 1.499999999999999556 ) ;
#146 = CARTESIAN_POINT ( 'NONE',  ( 1.500000000000000000, 0.0000000000000000000, -5.237222008264700033E-15 ) ) ;
#147 = AXIS2_PLACEMENT_3D ( 'NONE', #104, #156, #138 ) ;
#148 = CYLINDRICAL_SURFACE ( 'NONE', #125, 1.499999999999999778 ) ;
#149 = ADVANCED_BREP_SHAPE_REPRESENTATION ( '64392', ( #46, #194, #76 ), #93 ) ;
#150 = EDGE_LOOP ( 'NONE', ( #162 ) ) ;
#151 = DIRECTION ( 'NONE',  ( 1.000000000000000000, 0.0000000000000000000, 0.0000000000000000000 ) ) ;
#152 = DIRECTION ( 'NONE',  ( 3.491481338843133355E-15, -0.0000000000000000000, 1.000000000000000000 ) ) ;
#153 = DIRECTION ( 'NONE',  ( 1.000000000000000000, 0.0000000000000000000, -3.469446951953615372E-15 ) ) ;
#154 = CC_DESIGN_SECURITY_CLASSIFICATION ( #79, ( #23 ) ) ;
#155 = VERTEX_POINT ( 'NONE', #182 ) ;
#156 = DIRECTION ( 'NONE',  ( -3.491481338843133355E-15, 1.224646799147353207E-16, -1.000000000000000000 ) ) ;
#157 = DIRECTION ( 'NONE',  ( -4.275831445896958607E-31, -1.000000000000000000, -1.224646799147353207E-16 ) ) ;
#158 = COORDINATED_UNIVERSAL_TIME_OFFSET ( 1, 0, .AHEAD. ) ;
#159 = DIRECTION ( 'NONE',  ( -1.000000000000000000, 0.0000000000000000000, 3.469446951953615372E-15 ) ) ;
#160 = ORIENTED_EDGE ( 'NONE', *, *, #43, .T. ) ;
#161 = FACE_OUTER_BOUND ( 'NONE', #70, .T. ) ;
#162 = ORIENTED_EDGE ( 'NONE', *, *, #94, .T. ) ;
#163 = FACE_OUTER_BOUND ( 'NONE', #114, .T. ) ;
#164 = AXIS2_PLACEMENT_3D ( 'NONE', #47, #122, #157 ) ;
#165 = MECHANICAL_CONTEXT ( 'NONE', #103, 'mechanical' ) ;
#166 = CLOSED_SHELL ( 'NONE', ( #74, #123, #22 ) ) ;
#167 = CIRCLE ( 'NONE', #11, 3.000000000000001776 ) ;
#168 = COORDINATED_UNIVERSAL_TIME_OFFSET ( 1, 0, .AHEAD. ) ;
#169 = PLANE ( 'NONE',  #139 ) ;
#170 = FACE_OUTER_BOUND ( 'NONE', #179, .T. ) ;
#171 = ORGANIZATION ( 'UNSPECIFIED', 'UNSPECIFIED', '' ) ;
#172 = APPROVAL_DATE_TIME ( #17, #111 ) ;
#173 = CARTESIAN_POINT ( 'NONE',  ( 1.745740669421566678E-13, -6.123233995736766085E-15, 50.00000000000000000 ) ) ;
#174 = DIRECTION ( 'NONE',  ( 4.275831445896958607E-31, 1.000000000000000000, 1.224646799147353207E-16 ) ) ;
#175 = CALENDAR_DATE ( 2021, 10, 11 ) ;
#176 = PERSON_AND_ORGANIZATION ( #37, #171 ) ;
#177 = EDGE_LOOP ( 'NONE', ( #41 ) ) ;
#178 = LOCAL_TIME ( 8, 14, 39.00000000000000000, #68 ) ;
#179 = EDGE_LOOP ( 'NONE', ( #118 ) ) ;
#180 = EDGE_CURVE ( 'NONE', #44, #44, #186, .T. ) ;
#181 = PERSON_AND_ORGANIZATION_ROLE ( 'design_owner' ) ;
#182 = CARTESIAN_POINT ( 'NONE',  ( -2.999999999999972466, 0.0000000000000000000, 7.663689526544413155 ) ) ;
#183 = PERSON_AND_ORGANIZATION ( #37, #171 ) ;
#184 = FACE_OUTER_BOUND ( 'NONE', #221, .T. ) ;
#185 = DIRECTION ( 'NONE',  ( 1.000000000000000000, 0.0000000000000000000, -3.491481338843133750E-15 ) ) ;
#186 = CIRCLE ( 'NONE', #39, 1.500000000000000000 ) ;
#187 = DATE_AND_TIME ( #188, #195 ) ;
#188 = CALENDAR_DATE ( 2021, 10, 11 ) ;
#189 = DIRECTION ( 'NONE',  ( -3.491481338843133355E-15, 0.0000000000000000000, -1.000000000000000000 ) ) ;
#190 = PERSON_AND_ORGANIZATION_ROLE ( 'creator' ) ;
#191 = EDGE_LOOP ( 'NONE', ( #82 ) ) ;
#192 = AXIS2_PLACEMENT_3D ( 'NONE', #200, #189, #159 ) ;
#193 = ORIENTED_EDGE ( 'NONE', *, *, #180, .T. ) ;
#194 = MANIFOLD_SOLID_BREP ( 'Corps-Déplacer/Copier1[2]', #166 ) ;
#195 = LOCAL_TIME ( 8, 14, 39.00000000000000000, #168 ) ;
#196 = DIRECTION ( 'NONE',  ( 3.491481338843133355E-15, -0.0000000000000000000, 1.000000000000000000 ) ) ;
#197 = CC_DESIGN_DATE_AND_TIME_ASSIGNMENT ( #128, #140, ( #69 ) ) ;
#198 = DESIGN_CONTEXT ( 'detailed design', #92, 'design' ) ;
#199 = APPROVAL_ROLE ( '' ) ;
#200 = CARTESIAN_POINT ( 'NONE',  ( 2.675762896861735115E-14, 0.0000000000000000000, 7.663689526544403385 ) ) ;
#201 = EDGE_CURVE ( 'NONE', #213, #213, #145, .T. ) ;
#202 = APPROVAL_STATUS ( 'not_yet_approved' ) ;
#203 = CIRCLE ( 'NONE', #210, 2.500000000000001776 ) ;
#204 = PERSON_AND_ORGANIZATION_ROLE ( 'creator' ) ;
#205 = APPROVAL_DATE_TIME ( #187, #77 ) ;
#206 = ORIENTED_EDGE ( 'NONE', *, *, #201, .T. ) ;
#207 = FACE_OUTER_BOUND ( 'NONE', #150, .T. ) ;
#208 = EDGE_LOOP ( 'NONE', ( #193 ) ) ;
#209 = APPROVAL ( #90, 'UNSPECIFIED' ) ;
#210 = AXIS2_PLACEMENT_3D ( 'NONE', #173, #13, #222 ) ;
#211 = FACE_OUTER_BOUND ( 'NONE', #208, .T. ) ;
#212 = CONICAL_SURFACE ( 'NONE', #147, 2.500000000000001776, 0.7853981633974479459 ) ;
#213 = VERTEX_POINT ( 'NONE', #100 ) ;
#214 = CARTESIAN_POINT ( 'NONE',  ( 0.0000000000000000000, 0.0000000000000000000, 0.0000000000000000000 ) ) ;
#215 = FACE_OUTER_BOUND ( 'NONE', #73, .T. ) ;
#216 = DIRECTION ( 'NONE',  ( 1.000000000000000000, 0.0000000000000000000, -3.491481338843133355E-15 ) ) ;
#217 = PERSON_AND_ORGANIZATION ( #37, #171 ) ;
#218 = APPROVAL_PERSON_ORGANIZATION ( #109, #111, #31 ) ;
#219 = CALENDAR_DATE ( 2021, 10, 11 ) ;
#220 = CALENDAR_DATE ( 2021, 10, 11 ) ;
#221 = EDGE_LOOP ( 'NONE', ( #131 ) ) ;
#222 = DIRECTION ( 'NONE',  ( 0.0000000000000000000, 1.000000000000000000, 0.0000000000000000000 ) ) ;
#223 = APPROVAL_PERSON_ORGANIZATION ( #137, #77, #199 ) ;
ENDSEC;
END-ISO-10303-21;
