ISO-10303-21;
HEADER;
FILE_DESCRIPTION (( 'STEP AP203' ),
    '1' );
FILE_NAME ('64391.step',
    '2021-11-10T07:14:39',
    ( '' ),
    ( '' ),
    'SwSTEP 2.0',
    'SolidWorks 2019',
    '' );
FILE_SCHEMA (( 'CONFIG_CONTROL_DESIGN' ));
ENDSEC;

DATA;
#1 = VERTEX_POINT ( 'NONE', #98 ) ;
#2 = DIRECTION ( 'NONE',  ( 3.491481338843133355E-15, -0.0000000000000000000, 1.000000000000000000 ) ) ;
#3 = DATE_AND_TIME ( #158, #5 ) ;
#4 = APPROVAL_ROLE ( '' ) ;
#5 = LOCAL_TIME ( 8, 14, 39.00000000000000000, #33 ) ;
#6 = APPLICATION_CONTEXT ( 'configuration controlled 3d designs of mechanical parts and assemblies' ) ;
#7 = PERSON_AND_ORGANIZATION ( #104, #124 ) ;
#8 = AXIS2_PLACEMENT_3D ( 'NONE', #115, #93, #24 ) ;
#9 = AXIS2_PLACEMENT_3D ( 'NONE', #84, #153, #79 ) ;
#10 = CYLINDRICAL_SURFACE ( 'NONE', #126, 1.250000000000000666 ) ;
#11 = EDGE_LOOP ( 'NONE', ( #140 ) ) ;
#12 = CARTESIAN_POINT ( 'NONE',  ( 1.745740669421566678E-13, -6.123233995736766085E-15, 50.00000000000000000 ) ) ;
#13 = ORIENTED_EDGE ( 'NONE', *, *, #159, .T. ) ;
#14 = CARTESIAN_POINT ( 'NONE',  ( 1.745740669421566678E-13, -6.123233995736766085E-15, 50.00000000000000000 ) ) ;
#15 = PRODUCT ( '64391', '64391', '', ( #112 ) ) ;
#16 = CARTESIAN_POINT ( 'NONE',  ( 0.0000000000000000000, 0.0000000000000000000, 0.0000000000000000000 ) ) ;
#17 = DIRECTION ( 'NONE',  ( 3.491481338843133355E-15, -0.0000000000000000000, 1.000000000000000000 ) ) ;
#18 = AXIS2_PLACEMENT_3D ( 'NONE', #134, #185, #166 ) ;
#19 = PERSON_AND_ORGANIZATION_ROLE ( 'design_owner' ) ;
#20 = AXIS2_PLACEMENT_3D ( 'NONE', #184, #17, #188 ) ;
#21 = ORIENTED_EDGE ( 'NONE', *, *, #36, .F. ) ;
#22 = PRODUCT_DEFINITION_SHAPE ( 'NONE', 'NONE',  #135 ) ;
#23 = ADVANCED_FACE ( 'NONE', ( #196 ), #127, .T. ) ;
#24 = DIRECTION ( 'NONE',  ( 1.000000000000000000, 0.0000000000000000000, -3.469446951953611033E-15 ) ) ;
#25 = FACE_OUTER_BOUND ( 'NONE', #74, .T. ) ;
#26 = EDGE_LOOP ( 'NONE', ( #162 ) ) ;
#27 = CC_DESIGN_APPROVAL ( #176, ( #101 ) ) ;
#28 = DIRECTION ( 'NONE',  ( -4.275831445896958607E-31, -1.000000000000000000, -1.224646799147353207E-16 ) ) ;
#29 = DATE_TIME_ROLE ( 'creation_date' ) ;
#30 = MANIFOLD_SOLID_BREP ( 'Corps-Déplacer/Copier1[2]', #177 ) ;
#31 = PLANE ( 'NONE',  #9 ) ;
#32 = VERTEX_POINT ( 'NONE', #97 ) ;
#33 = COORDINATED_UNIVERSAL_TIME_OFFSET ( 1, 0, .AHEAD. ) ;
#34 = SECURITY_CLASSIFICATION_LEVEL ( 'unclassified' ) ;
#35 = MANIFOLD_SOLID_BREP ( 'Corps-Déplacer/Copier1[1]', #71 ) ;
#36 = EDGE_CURVE ( 'NONE', #32, #32, #58, .T. ) ;
#37 = ORIENTED_EDGE ( 'NONE', *, *, #36, .T. ) ;
#38 = LOCAL_TIME ( 8, 14, 39.00000000000000000, #213 ) ;
#39 =( GEOMETRIC_REPRESENTATION_CONTEXT ( 3 ) GLOBAL_UNCERTAINTY_ASSIGNED_CONTEXT ( ( #66 ) ) GLOBAL_UNIT_ASSIGNED_CONTEXT ( ( #106, #77, #146 ) ) REPRESENTATION_CONTEXT ( 'NONE', 'WORKASPACE' ) );
#40 = DIRECTION ( 'NONE',  ( 3.491481338843133355E-15, -1.224646799147353207E-16, 1.000000000000000000 ) ) ;
#41 = AXIS2_PLACEMENT_3D ( 'NONE', #60, #2, #46 ) ;
#42 = DIRECTION ( 'NONE',  ( 3.491481338843133355E-15, -0.0000000000000000000, 1.000000000000000000 ) ) ;
#43 = CARTESIAN_POINT ( 'NONE',  ( 1.250000000000009770, 0.0000000000000000000, 2.499999999999993339 ) ) ;
#44 = DIRECTION ( 'NONE',  ( -3.491481338843133355E-15, 1.224646799147353207E-16, -1.000000000000000000 ) ) ;
#45 = PERSON_AND_ORGANIZATION ( #104, #124 ) ;
#46 = DIRECTION ( 'NONE',  ( 1.000000000000000000, 0.0000000000000000000, -3.491481338843133355E-15 ) ) ;
#47 = FACE_OUTER_BOUND ( 'NONE', #206, .T. ) ;
#48 = EDGE_CURVE ( 'NONE', #100, #100, #183, .T. ) ;
#49 = DIRECTION ( 'NONE',  ( 3.491481338843133355E-15, -0.0000000000000000000, 1.000000000000000000 ) ) ;
#50 = APPROVAL_ROLE ( '' ) ;
#51 = APPROVAL_PERSON_ORGANIZATION ( #149, #176, #96 ) ;
#52 = AXIS2_PLACEMENT_3D ( 'NONE', #14, #92, #59 ) ;
#53 = COORDINATED_UNIVERSAL_TIME_OFFSET ( 1, 0, .AHEAD. ) ;
#54 = ADVANCED_FACE ( 'NONE', ( #132, #187 ), #212, .T. ) ;
#55 = EDGE_LOOP ( 'NONE', ( #65 ) ) ;
#56 = PRODUCT_DEFINITION_FORMATION_WITH_SPECIFIED_SOURCE ( 'ANY', '', #15, .NOT_KNOWN. ) ;
#57 = APPROVAL ( #120, 'UNSPECIFIED' ) ;
#58 = CIRCLE ( 'NONE', #8, 1.250000000000001110 ) ;
#59 = DIRECTION ( 'NONE',  ( 0.0000000000000000000, 1.000000000000000000, 0.0000000000000000000 ) ) ;
#60 = CARTESIAN_POINT ( 'NONE',  ( 8.728703347107828655E-15, 0.0000000000000000000, 2.499999999999998668 ) ) ;
#61 = APPROVAL ( #174, 'UNSPECIFIED' ) ;
#62 = DIRECTION ( 'NONE',  ( -3.491481338843133355E-15, 0.0000000000000000000, -1.000000000000000000 ) ) ;
#63 = LOCAL_TIME ( 8, 14, 39.00000000000000000, #53 ) ;
#64 = DIRECTION ( 'NONE',  ( 4.275831445896958607E-31, 1.000000000000000000, 1.224646799147353207E-16 ) ) ;
#65 = ORIENTED_EDGE ( 'NONE', *, *, #159, .F. ) ;
#66 = UNCERTAINTY_MEASURE_WITH_UNIT (LENGTH_MEASURE( 1.000000000000000082E-05 ), #106, 'distance_accuracy_value', 'NONE');
#67 = CARTESIAN_POINT ( 'NONE',  ( 1.250000000000000000, 0.0000000000000000000, -4.364351673553916694E-15 ) ) ;
#68 = DIRECTION ( 'NONE',  ( -1.000000000000000000, 0.0000000000000000000, 3.469446951953615372E-15 ) ) ;
#69 = APPROVAL_DATE_TIME ( #194, #61 ) ;
#70 = VERTEX_POINT ( 'NONE', #43 ) ;
#71 = CLOSED_SHELL ( 'NONE', ( #54, #73, #123, #165, #208 ) ) ;
#72 = AXIS2_PLACEMENT_3D ( 'NONE', #12, #44, #80 ) ;
#73 = ADVANCED_FACE ( 'NONE', ( #136, #83 ), #190, .T. ) ;
#74 = EDGE_LOOP ( 'NONE', ( #130 ) ) ;
#75 = APPROVAL_DATE_TIME ( #219, #176 ) ;
#76 = CC_DESIGN_PERSON_AND_ORGANIZATION_ASSIGNMENT ( #45, #175, ( #56 ) ) ;
#77 =( NAMED_UNIT ( * ) PLANE_ANGLE_UNIT ( ) SI_UNIT ( $, .RADIAN. ) );
#78 = PERSON_AND_ORGANIZATION_ROLE ( 'classification_officer' ) ;
#79 = DIRECTION ( 'NONE',  ( 4.275831445896958607E-31, 1.000000000000000000, 1.224646799147353207E-16 ) ) ;
#80 = DIRECTION ( 'NONE',  ( 0.0000000000000000000, 1.000000000000000000, 0.0000000000000000000 ) ) ;
#81 = ORIENTED_EDGE ( 'NONE', *, *, #110, .F. ) ;
#82 = CC_DESIGN_PERSON_AND_ORGANIZATION_ASSIGNMENT ( #147, #78, ( #101 ) ) ;
#83 = FACE_BOUND ( 'NONE', #156, .T. ) ;
#84 = CARTESIAN_POINT ( 'NONE',  ( 1.745740669421566678E-13, 1.874699728327314346E-32, 50.00000000000000000 ) ) ;
#85 = LOCAL_TIME ( 8, 14, 39.00000000000000000, #144 ) ;
#86 = DIRECTION ( 'NONE',  ( 3.491481338843133355E-15, -1.224646799147353207E-16, 1.000000000000000000 ) ) ;
#87 = CC_DESIGN_SECURITY_CLASSIFICATION ( #101, ( #56 ) ) ;
#88 = ADVANCED_FACE ( 'NONE', ( #47 ), #111, .F. ) ;
#89 = CIRCLE ( 'NONE', #20, 1.250000000000000000 ) ;
#90 = PRODUCT_RELATED_PRODUCT_CATEGORY ( 'detail', '', ( #15 ) ) ;
#91 = PERSON_AND_ORGANIZATION_ROLE ( 'creator' ) ;
#92 = DIRECTION ( 'NONE',  ( -3.491481338843133355E-15, 1.224646799147353207E-16, -1.000000000000000000 ) ) ;
#93 = DIRECTION ( 'NONE',  ( 3.491481338843133355E-15, -0.0000000000000000000, 1.000000000000000000 ) ) ;
#94 = ORIENTED_EDGE ( 'NONE', *, *, #110, .T. ) ;
#95 = AXIS2_PLACEMENT_3D ( 'NONE', #204, #86, #28 ) ;
#96 = APPROVAL_ROLE ( '' ) ;
#97 = CARTESIAN_POINT ( 'NONE',  ( 1.250000000000009770, 0.0000000000000000000, 2.499999999999993339 ) ) ;
#98 = CARTESIAN_POINT ( 'NONE',  ( -2.999999999999973355, 0.0000000000000000000, 7.493746088859550625 ) ) ;
#99 = CARTESIAN_POINT ( 'NONE',  ( 2.616427462728180089E-14, 0.0000000000000000000, 7.493746088859539967 ) ) ;
#100 = VERTEX_POINT ( 'NONE', #202 ) ;
#101 = SECURITY_CLASSIFICATION ( '', '', #34 ) ;
#102 = APPROVAL_PERSON_ORGANIZATION ( #7, #61, #50 ) ;
#103 = DATE_AND_TIME ( #143, #85 ) ;
#104 = PERSON ( 'UNSPECIFIED', 'UNSPECIFIED', 'UNSPECIFIED', ('UNSPECIFIED'), ('UNSPECIFIED'), ('UNSPECIFIED') ) ;
#105 = APPLICATION_CONTEXT ( 'configuration controlled 3d designs of mechanical parts and assemblies' ) ;
#106 =( LENGTH_UNIT ( ) NAMED_UNIT ( * ) SI_UNIT ( .MILLI., .METRE. ) );
#107 = APPROVAL_STATUS ( 'not_yet_approved' ) ;
#108 = CARTESIAN_POINT ( 'NONE',  ( 0.0000000000000000000, 0.0000000000000000000, 0.0000000000000000000 ) ) ;
#109 = DIRECTION ( 'NONE',  ( 1.000000000000000000, 0.0000000000000000000, -3.469446951953611033E-15 ) ) ;
#110 = EDGE_CURVE ( 'NONE', #173, #173, #201, .T. ) ;
#111 = PLANE ( 'NONE',  #95 ) ;
#112 = MECHANICAL_CONTEXT ( 'NONE', #6, 'mechanical' ) ;
#113 = PLANE ( 'NONE',  #207 ) ;
#114 = AXIS2_PLACEMENT_3D ( 'NONE', #155, #42, #109 ) ;
#115 = CARTESIAN_POINT ( 'NONE',  ( 8.728703347107825500E-15, 0.0000000000000000000, 2.499999999999997780 ) ) ;
#116 = PERSON_AND_ORGANIZATION ( #104, #124 ) ;
#117 = ADVANCED_BREP_SHAPE_REPRESENTATION ( '64391', ( #35, #30, #221 ), #39 ) ;
#118 = VERTEX_POINT ( 'NONE', #67 ) ;
#119 = FACE_OUTER_BOUND ( 'NONE', #125, .T. ) ;
#120 = APPROVAL_STATUS ( 'not_yet_approved' ) ;
#121 = DESIGN_CONTEXT ( 'detailed design', #105, 'design' ) ;
#122 = DATE_AND_TIME ( #133, #63 ) ;
#123 = ADVANCED_FACE ( 'NONE', ( #25 ), #31, .F. ) ;
#124 = ORGANIZATION ( 'UNSPECIFIED', 'UNSPECIFIED', '' ) ;
#125 = EDGE_LOOP ( 'NONE', ( #137 ) ) ;
#126 = AXIS2_PLACEMENT_3D ( 'NONE', #150, #49, #217 ) ;
#127 = PLANE ( 'NONE',  #211 ) ;
#128 = ADVANCED_FACE ( 'NONE', ( #220, #154 ), #10, .T. ) ;
#129 = DIRECTION ( 'NONE',  ( 0.0000000000000000000, 0.0000000000000000000, 1.000000000000000000 ) ) ;
#130 = ORIENTED_EDGE ( 'NONE', *, *, #48, .F. ) ;
#131 = PERSON_AND_ORGANIZATION ( #104, #124 ) ;
#132 = FACE_OUTER_BOUND ( 'NONE', #152, .T. ) ;
#133 = CALENDAR_DATE ( 2021, 10, 11 ) ;
#134 = CARTESIAN_POINT ( 'NONE',  ( 1.728283262727351074E-13, -6.062001655779398511E-15, 49.50000000000000000 ) ) ;
#135 = PRODUCT_DEFINITION ( 'UNKNOWN', '', #56, #121 ) ;
#136 = FACE_OUTER_BOUND ( 'NONE', #170, .T. ) ;
#137 = ORIENTED_EDGE ( 'NONE', *, *, #189, .T. ) ;
#138 = DIRECTION ( 'NONE',  ( -4.275831445896958607E-31, -1.000000000000000000, -1.224646799147353207E-16 ) ) ;
#139 = PERSON_AND_ORGANIZATION ( #104, #124 ) ;
#140 = ORIENTED_EDGE ( 'NONE', *, *, #223, .T. ) ;
#141 = CIRCLE ( 'NONE', #179, 2.999999999999999112 ) ;
#142 = CC_DESIGN_PERSON_AND_ORGANIZATION_ASSIGNMENT ( #139, #167, ( #56 ) ) ;
#143 = CALENDAR_DATE ( 2021, 10, 11 ) ;
#144 = COORDINATED_UNIVERSAL_TIME_OFFSET ( 1, 0, .AHEAD. ) ;
#145 = EDGE_LOOP ( 'NONE', ( #13 ) ) ;
#146 =( NAMED_UNIT ( * ) SI_UNIT ( $, .STERADIAN. ) SOLID_ANGLE_UNIT ( ) );
#147 = PERSON_AND_ORGANIZATION ( #104, #124 ) ;
#148 = DIRECTION ( 'NONE',  ( 1.000000000000000000, 0.0000000000000000000, 0.0000000000000000000 ) ) ;
#149 = PERSON_AND_ORGANIZATION ( #104, #124 ) ;
#150 = CARTESIAN_POINT ( 'NONE',  ( 0.0000000000000000000, 0.0000000000000000000, 0.0000000000000000000 ) ) ;
#151 = LOCAL_TIME ( 8, 14, 39.00000000000000000, #180 ) ;
#152 = EDGE_LOOP ( 'NONE', ( #94 ) ) ;
#153 = DIRECTION ( 'NONE',  ( -3.491481338843133355E-15, 1.224646799147353207E-16, -1.000000000000000000 ) ) ;
#154 = FACE_OUTER_BOUND ( 'NONE', #55, .T. ) ;
#155 = CARTESIAN_POINT ( 'NONE',  ( 8.728703347107825500E-15, 0.0000000000000000000, 2.499999999999997780 ) ) ;
#156 = EDGE_LOOP ( 'NONE', ( #214 ) ) ;
#157 = CARTESIAN_POINT ( 'NONE',  ( 1.728283262727351074E-13, 2.999999999999995559, 49.50000000000000000 ) ) ;
#158 = CALENDAR_DATE ( 2021, 10, 11 ) ;
#159 = EDGE_CURVE ( 'NONE', #70, #70, #198, .T. ) ;
#160 = CC_DESIGN_APPROVAL ( #57, ( #56 ) ) ;
#161 = CC_DESIGN_DATE_AND_TIME_ASSIGNMENT ( #122, #29, ( #135 ) ) ;
#162 = ORIENTED_EDGE ( 'NONE', *, *, #189, .F. ) ;
#163 = ORIENTED_EDGE ( 'NONE', *, *, #223, .F. ) ;
#164 = TOROIDAL_SURFACE ( 'NONE', #41, 9.250000000000001776, 8.000000000000000000 ) ;
#165 = ADVANCED_FACE ( 'NONE', ( #169, #119 ), #164, .F. ) ;
#166 = DIRECTION ( 'NONE',  ( 0.0000000000000000000, 1.000000000000000000, 0.0000000000000000000 ) ) ;
#167 = PERSON_AND_ORGANIZATION_ROLE ( 'creator' ) ;
#168 = CC_DESIGN_APPROVAL ( #61, ( #135 ) ) ;
#169 = FACE_OUTER_BOUND ( 'NONE', #218, .T. ) ;
#170 = EDGE_LOOP ( 'NONE', ( #81 ) ) ;
#171 = CARTESIAN_POINT ( 'NONE',  ( 8.728703347107831810E-15, -3.614007241618354194E-16, 2.499999999999999556 ) ) ;
#172 = EDGE_LOOP ( 'NONE', ( #21 ) ) ;
#173 = VERTEX_POINT ( 'NONE', #157 ) ;
#174 = APPROVAL_STATUS ( 'not_yet_approved' ) ;
#175 = PERSON_AND_ORGANIZATION_ROLE ( 'design_supplier' ) ;
#176 = APPROVAL ( #107, 'UNSPECIFIED' ) ;
#177 = CLOSED_SHELL ( 'NONE', ( #23, #128, #88 ) ) ;
#178 = SHAPE_DEFINITION_REPRESENTATION ( #22, #117 ) ;
#179 = AXIS2_PLACEMENT_3D ( 'NONE', #99, #62, #68 ) ;
#180 = COORDINATED_UNIVERSAL_TIME_OFFSET ( 1, 0, .AHEAD. ) ;
#181 = CC_DESIGN_DATE_AND_TIME_ASSIGNMENT ( #103, #216, ( #101 ) ) ;
#182 = CALENDAR_DATE ( 2021, 10, 11 ) ;
#183 = CIRCLE ( 'NONE', #52, 2.500000000000001776 ) ;
#184 = CARTESIAN_POINT ( 'NONE',  ( 0.0000000000000000000, 0.0000000000000000000, 0.0000000000000000000 ) ) ;
#185 = DIRECTION ( 'NONE',  ( -3.491481338843133355E-15, 1.224646799147353207E-16, -1.000000000000000000 ) ) ;
#186 = DIRECTION ( 'NONE',  ( -4.275831445896958607E-31, -1.000000000000000000, -1.224646799147353207E-16 ) ) ;
#187 = FACE_OUTER_BOUND ( 'NONE', #26, .T. ) ;
#188 = DIRECTION ( 'NONE',  ( 1.000000000000000000, 0.0000000000000000000, -3.491481338843133355E-15 ) ) ;
#189 = EDGE_CURVE ( 'NONE', #1, #1, #141, .T. ) ;
#190 = CONICAL_SURFACE ( 'NONE', #72, 2.500000000000001776, 0.7853981633974479459 ) ;
#191 = PERSON_AND_ORGANIZATION ( #104, #124 ) ;
#192 = CC_DESIGN_PERSON_AND_ORGANIZATION_ASSIGNMENT ( #131, #19, ( #15 ) ) ;
#193 = CALENDAR_DATE ( 2021, 10, 11 ) ;
#194 = DATE_AND_TIME ( #193, #38 ) ;
#195 = APPROVAL_PERSON_ORGANIZATION ( #116, #57, #4 ) ;
#196 = FACE_OUTER_BOUND ( 'NONE', #145, .T. ) ;
#197 = CARTESIAN_POINT ( 'NONE',  ( 8.728703347107831810E-15, -3.614007241618354194E-16, 2.499999999999999556 ) ) ;
#198 = CIRCLE ( 'NONE', #114, 1.250000000000001110 ) ;
#199 = DIRECTION ( 'NONE',  ( -3.491481338843133355E-15, 1.224646799147353207E-16, -1.000000000000000000 ) ) ;
#200 = FACE_OUTER_BOUND ( 'NONE', #172, .T. ) ;
#201 = CIRCLE ( 'NONE', #18, 3.000000000000001776 ) ;
#202 = CARTESIAN_POINT ( 'NONE',  ( 1.745740669421566678E-13, 2.499999999999995559, 50.00000000000000000 ) ) ;
#203 = APPROVAL_DATE_TIME ( #3, #57 ) ;
#204 = CARTESIAN_POINT ( 'NONE',  ( -3.206816838010677856E-31, 1.124799933034399755E-32, -9.184688465421452921E-17 ) ) ;
#205 = APPLICATION_PROTOCOL_DEFINITION ( 'international standard', 'config_control_design', 1994, #105 ) ;
#206 = EDGE_LOOP ( 'NONE', ( #163 ) ) ;
#207 = AXIS2_PLACEMENT_3D ( 'NONE', #171, #222, #186 ) ;
#208 = ADVANCED_FACE ( 'NONE', ( #200 ), #113, .F. ) ;
#209 = AXIS2_PLACEMENT_3D ( 'NONE', #16, #199, #64 ) ;
#210 = APPLICATION_PROTOCOL_DEFINITION ( 'international standard', 'config_control_design', 1994, #6 ) ;
#211 = AXIS2_PLACEMENT_3D ( 'NONE', #197, #40, #138 ) ;
#212 = CYLINDRICAL_SURFACE ( 'NONE', #209, 2.999999999999999112 ) ;
#213 = COORDINATED_UNIVERSAL_TIME_OFFSET ( 1, 0, .AHEAD. ) ;
#214 = ORIENTED_EDGE ( 'NONE', *, *, #48, .T. ) ;
#215 = CC_DESIGN_PERSON_AND_ORGANIZATION_ASSIGNMENT ( #191, #91, ( #135 ) ) ;
#216 = DATE_TIME_ROLE ( 'classification_date' ) ;
#217 = DIRECTION ( 'NONE',  ( 1.000000000000000000, 0.0000000000000000000, -3.491481338843133355E-15 ) ) ;
#218 = EDGE_LOOP ( 'NONE', ( #37 ) ) ;
#219 = DATE_AND_TIME ( #182, #151 ) ;
#220 = FACE_OUTER_BOUND ( 'NONE', #11, .T. ) ;
#221 = AXIS2_PLACEMENT_3D ( 'NONE', #108, #129, #148 ) ;
#222 = DIRECTION ( 'NONE',  ( 3.491481338843133355E-15, -1.224646799147353207E-16, 1.000000000000000000 ) ) ;
#223 = EDGE_CURVE ( 'NONE', #118, #118, #89, .T. ) ;
ENDSEC;
END-ISO-10303-21;
