ISO-10303-21;
HEADER;
FILE_DESCRIPTION (( 'STEP AP203' ),
    '1' );
FILE_NAME ('64390.step',
    '2021-11-10T07:14:38',
    ( '' ),
    ( '' ),
    'SwSTEP 2.0',
    'SolidWorks 2019',
    '' );
FILE_SCHEMA (( 'CONFIG_CONTROL_DESIGN' ));
ENDSEC;

DATA;
#1 = CC_DESIGN_PERSON_AND_ORGANIZATION_ASSIGNMENT ( #191, #195, ( #193 ) ) ;
#2 = CARTESIAN_POINT ( 'NONE',  ( -3.206816838010677856E-31, 1.124799933034399755E-32, -9.184688465421452921E-17 ) ) ;
#3 = CARTESIAN_POINT ( 'NONE',  ( 1.199999999999999956, 0.0000000000000000000, -4.189777606611759237E-15 ) ) ;
#4 = APPROVAL_STATUS ( 'not_yet_approved' ) ;
#5 = PLANE ( 'NONE',  #103 ) ;
#6 = PERSON_AND_ORGANIZATION_ROLE ( 'creator' ) ;
#7 = CYLINDRICAL_SURFACE ( 'NONE', #38, 1.199999999999999734 ) ;
#8 = AXIS2_PLACEMENT_3D ( 'NONE', #131, #99, #150 ) ;
#9 = EDGE_CURVE ( 'NONE', #176, #176, #192, .T. ) ;
#10 = CARTESIAN_POINT ( 'NONE',  ( 8.379555213223513742E-15, 0.0000000000000000000, 2.399999999999998579 ) ) ;
#11 =( NAMED_UNIT ( * ) SI_UNIT ( $, .STERADIAN. ) SOLID_ANGLE_UNIT ( ) );
#12 = PERSON_AND_ORGANIZATION_ROLE ( 'creator' ) ;
#13 = AXIS2_PLACEMENT_3D ( 'NONE', #88, #68, #141 ) ;
#14 = FACE_BOUND ( 'NONE', #28, .T. ) ;
#15 = EDGE_LOOP ( 'NONE', ( #180 ) ) ;
#16 = DIRECTION ( 'NONE',  ( -3.491481338843133355E-15, 1.224646799147353207E-16, -1.000000000000000000 ) ) ;
#17 = PLANE ( 'NONE',  #204 ) ;
#18 = CARTESIAN_POINT ( 'NONE',  ( 0.0000000000000000000, 0.0000000000000000000, 0.0000000000000000000 ) ) ;
#19 = ADVANCED_FACE ( 'NONE', ( #128, #14 ), #186, .T. ) ;
#20 = DATE_TIME_ROLE ( 'creation_date' ) ;
#21 = FACE_OUTER_BOUND ( 'NONE', #101, .T. ) ;
#22 = COORDINATED_UNIVERSAL_TIME_OFFSET ( 1, 0, .AHEAD. ) ;
#23 = APPROVAL_ROLE ( '' ) ;
#24 = APPROVAL_PERSON_ORGANIZATION ( #69, #54, #198 ) ;
#25 = APPLICATION_CONTEXT ( 'configuration controlled 3d designs of mechanical parts and assemblies' ) ;
#26 = APPROVAL_STATUS ( 'not_yet_approved' ) ;
#27 = ORIENTED_EDGE ( 'NONE', *, *, #43, .F. ) ;
#28 = EDGE_LOOP ( 'NONE', ( #132 ) ) ;
#29 = CC_DESIGN_APPROVAL ( #54, ( #92 ) ) ;
#30 = DIRECTION ( 'NONE',  ( 0.0000000000000000000, 1.000000000000000000, 0.0000000000000000000 ) ) ;
#31 = CLOSED_SHELL ( 'NONE', ( #64, #19, #148, #171, #158 ) ) ;
#32 = CC_DESIGN_DATE_AND_TIME_ASSIGNMENT ( #139, #20, ( #34 ) ) ;
#33 = FACE_OUTER_BOUND ( 'NONE', #80, .T. ) ;
#34 = PRODUCT_DEFINITION ( 'UNKNOWN', '', #92, #143 ) ;
#35 = DIRECTION ( 'NONE',  ( -3.491481338843133355E-15, 1.224646799147353207E-16, -1.000000000000000000 ) ) ;
#36 = CARTESIAN_POINT ( 'NONE',  ( 0.0000000000000000000, 0.0000000000000000000, 0.0000000000000000000 ) ) ;
#37 = DIRECTION ( 'NONE',  ( 3.491481338843133355E-15, -1.224646799147353207E-16, 1.000000000000000000 ) ) ;
#38 = AXIS2_PLACEMENT_3D ( 'NONE', #137, #169, #71 ) ;
#39 = CARTESIAN_POINT ( 'NONE',  ( -2.999999999999973355, 0.0000000000000000000, 7.455689863905822889 ) ) ;
#40 = COORDINATED_UNIVERSAL_TIME_OFFSET ( 1, 0, .AHEAD. ) ;
#41 = CALENDAR_DATE ( 2021, 10, 11 ) ;
#42 = FACE_OUTER_BOUND ( 'NONE', #79, .T. ) ;
#43 = EDGE_CURVE ( 'NONE', #209, #209, #96, .T. ) ;
#44 = APPLICATION_PROTOCOL_DEFINITION ( 'international standard', 'config_control_design', 1994, #216 ) ;
#45 = APPROVAL_PERSON_ORGANIZATION ( #196, #145, #67 ) ;
#46 = ORIENTED_EDGE ( 'NONE', *, *, #124, .T. ) ;
#47 = ORIENTED_EDGE ( 'NONE', *, *, #115, .F. ) ;
#48 = DIRECTION ( 'NONE',  ( 1.000000000000000000, 0.0000000000000000000, -3.491481338843133355E-15 ) ) ;
#49 = SECURITY_CLASSIFICATION_LEVEL ( 'unclassified' ) ;
#50 = AXIS2_PLACEMENT_3D ( 'NONE', #10, #205, #48 ) ;
#51 = CARTESIAN_POINT ( 'NONE',  ( 0.0000000000000000000, 0.0000000000000000000, 0.0000000000000000000 ) ) ;
#52 = FACE_OUTER_BOUND ( 'NONE', #77, .T. ) ;
#53 = DATE_AND_TIME ( #41, #168 ) ;
#54 = APPROVAL ( #26, 'UNSPECIFIED' ) ;
#55 = CARTESIAN_POINT ( 'NONE',  ( 1.745740669421566678E-13, 1.874699728327314346E-32, 50.00000000000000000 ) ) ;
#56 = AXIS2_PLACEMENT_3D ( 'NONE', #55, #179, #93 ) ;
#57 = DIRECTION ( 'NONE',  ( -3.491481338843133355E-15, 1.224646799147353207E-16, -1.000000000000000000 ) ) ;
#58 = ORIENTED_EDGE ( 'NONE', *, *, #9, .F. ) ;
#59 = EDGE_LOOP ( 'NONE', ( #183 ) ) ;
#60 = DIRECTION ( 'NONE',  ( -3.491481338843133355E-15, 0.0000000000000000000, -1.000000000000000000 ) ) ;
#61 = SHAPE_DEFINITION_REPRESENTATION ( #207, #81 ) ;
#62 = AXIS2_PLACEMENT_3D ( 'NONE', #214, #57, #30 ) ;
#63 = CC_DESIGN_APPROVAL ( #119, ( #193 ) ) ;
#64 = ADVANCED_FACE ( 'NONE', ( #136, #221 ), #102, .T. ) ;
#65 = VERTEX_POINT ( 'NONE', #154 ) ;
#66 = CC_DESIGN_PERSON_AND_ORGANIZATION_ASSIGNMENT ( #199, #121, ( #201 ) ) ;
#67 = APPROVAL_ROLE ( '' ) ;
#68 = DIRECTION ( 'NONE',  ( 3.491481338843133355E-15, -0.0000000000000000000, 1.000000000000000000 ) ) ;
#69 = PERSON_AND_ORGANIZATION ( #215, #140 ) ;
#70 = CC_DESIGN_APPROVAL ( #145, ( #34 ) ) ;
#71 = DIRECTION ( 'NONE',  ( 1.000000000000000000, 0.0000000000000000000, -3.491481338843132961E-15 ) ) ;
#72 = CC_DESIGN_PERSON_AND_ORGANIZATION_ASSIGNMENT ( #208, #12, ( #92 ) ) ;
#73 = PERSON_AND_ORGANIZATION ( #215, #140 ) ;
#74 = MANIFOLD_SOLID_BREP ( 'Corps-Déplacer/Copier1[1]', #31 ) ;
#75 = AXIS2_PLACEMENT_3D ( 'NONE', #200, #197, #211 ) ;
#76 = APPROVAL_DATE_TIME ( #78, #119 ) ;
#77 = EDGE_LOOP ( 'NONE', ( #165 ) ) ;
#78 = DATE_AND_TIME ( #184, #97 ) ;
#79 = EDGE_LOOP ( 'NONE', ( #114 ) ) ;
#80 = EDGE_LOOP ( 'NONE', ( #113 ) ) ;
#81 = ADVANCED_BREP_SHAPE_REPRESENTATION ( '64390', ( #74, #222, #112 ), #83 ) ;
#82 = DIRECTION ( 'NONE',  ( 3.491481338843133355E-15, -0.0000000000000000000, 1.000000000000000000 ) ) ;
#83 =( GEOMETRIC_REPRESENTATION_CONTEXT ( 3 ) GLOBAL_UNCERTAINTY_ASSIGNED_CONTEXT ( ( #189 ) ) GLOBAL_UNIT_ASSIGNED_CONTEXT ( ( #160, #212, #11 ) ) REPRESENTATION_CONTEXT ( 'NONE', 'WORKASPACE' ) );
#84 = APPROVAL_PERSON_ORGANIZATION ( #108, #119, #23 ) ;
#85 = DIRECTION ( 'NONE',  ( 4.275831445896958607E-31, 1.000000000000000000, 1.224646799147353207E-16 ) ) ;
#86 = CARTESIAN_POINT ( 'NONE',  ( 1.200000000000008171, 0.0000000000000000000, 2.399999999999993250 ) ) ;
#87 = PERSON_AND_ORGANIZATION_ROLE ( 'design_supplier' ) ;
#88 = CARTESIAN_POINT ( 'NONE',  ( 8.379555213223512164E-15, 0.0000000000000000000, 2.399999999999997691 ) ) ;
#89 = PERSON_AND_ORGANIZATION ( #215, #140 ) ;
#90 = DIRECTION ( 'NONE',  ( 0.0000000000000000000, 1.000000000000000000, 0.0000000000000000000 ) ) ;
#91 = COORDINATED_UNIVERSAL_TIME_OFFSET ( 1, 0, .AHEAD. ) ;
#92 = PRODUCT_DEFINITION_FORMATION_WITH_SPECIFIED_SOURCE ( 'ANY', '', #201, .NOT_KNOWN. ) ;
#93 = DIRECTION ( 'NONE',  ( 4.275831445896958607E-31, 1.000000000000000000, 1.224646799147353207E-16 ) ) ;
#94 = MECHANICAL_CONTEXT ( 'NONE', #25, 'mechanical' ) ;
#95 = ORIENTED_EDGE ( 'NONE', *, *, #98, .F. ) ;
#96 = CIRCLE ( 'NONE', #130, 2.999999999999999112 ) ;
#97 = LOCAL_TIME ( 8, 14, 38.00000000000000000, #91 ) ;
#98 = EDGE_CURVE ( 'NONE', #172, #172, #118, .T. ) ;
#99 = DIRECTION ( 'NONE',  ( -3.491481338843133355E-15, 1.224646799147353207E-16, -1.000000000000000000 ) ) ;
#100 = AXIS2_PLACEMENT_3D ( 'NONE', #170, #16, #90 ) ;
#101 = EDGE_LOOP ( 'NONE', ( #147 ) ) ;
#102 = CYLINDRICAL_SURFACE ( 'NONE', #173, 2.999999999999999112 ) ;
#103 = AXIS2_PLACEMENT_3D ( 'NONE', #2, #37, #194 ) ;
#104 = DIRECTION ( 'NONE',  ( 3.491481338843133355E-15, -0.0000000000000000000, 1.000000000000000000 ) ) ;
#105 = CIRCLE ( 'NONE', #13, 1.199999999999999734 ) ;
#106 = DATE_AND_TIME ( #142, #182 ) ;
#107 = CC_DESIGN_PERSON_AND_ORGANIZATION_ASSIGNMENT ( #73, #6, ( #34 ) ) ;
#108 = PERSON_AND_ORGANIZATION ( #215, #140 ) ;
#109 = COORDINATED_UNIVERSAL_TIME_OFFSET ( 1, 0, .AHEAD. ) ;
#110 = PLANE ( 'NONE',  #56 ) ;
#111 = CALENDAR_DATE ( 2021, 10, 11 ) ;
#112 = AXIS2_PLACEMENT_3D ( 'NONE', #51, #178, #125 ) ;
#113 = ORIENTED_EDGE ( 'NONE', *, *, #218, .F. ) ;
#114 = ORIENTED_EDGE ( 'NONE', *, *, #43, .T. ) ;
#115 = EDGE_CURVE ( 'NONE', #65, #65, #159, .T. ) ;
#116 = DIRECTION ( 'NONE',  ( -4.275831445896958607E-31, -1.000000000000000000, -1.224646799147353207E-16 ) ) ;
#117 = COORDINATED_UNIVERSAL_TIME_OFFSET ( 1, 0, .AHEAD. ) ;
#118 = CIRCLE ( 'NONE', #166, 1.199999999999999734 ) ;
#119 = APPROVAL ( #177, 'UNSPECIFIED' ) ;
#120 = LOCAL_TIME ( 8, 14, 38.00000000000000000, #117 ) ;
#121 = PERSON_AND_ORGANIZATION_ROLE ( 'design_owner' ) ;
#122 = APPLICATION_PROTOCOL_DEFINITION ( 'international standard', 'config_control_design', 1994, #25 ) ;
#123 = APPROVAL_DATE_TIME ( #163, #54 ) ;
#124 = EDGE_CURVE ( 'NONE', #174, #174, #153, .T. ) ;
#125 = DIRECTION ( 'NONE',  ( 1.000000000000000000, 0.0000000000000000000, 0.0000000000000000000 ) ) ;
#126 = FACE_OUTER_BOUND ( 'NONE', #220, .T. ) ;
#127 = ADVANCED_FACE ( 'NONE', ( #157, #33 ), #7, .T. ) ;
#128 = FACE_OUTER_BOUND ( 'NONE', #133, .T. ) ;
#129 = EDGE_LOOP ( 'NONE', ( #46 ) ) ;
#130 = AXIS2_PLACEMENT_3D ( 'NONE', #219, #60, #203 ) ;
#131 = CARTESIAN_POINT ( 'NONE',  ( 1.745740669421566678E-13, -6.123233995736766085E-15, 50.00000000000000000 ) ) ;
#132 = ORIENTED_EDGE ( 'NONE', *, *, #9, .T. ) ;
#133 = EDGE_LOOP ( 'NONE', ( #47 ) ) ;
#134 = DIRECTION ( 'NONE',  ( 1.000000000000000000, 0.0000000000000000000, -3.614007241618349165E-15 ) ) ;
#135 = DIRECTION ( 'NONE',  ( 1.000000000000000000, 0.0000000000000000000, -3.491481338843132961E-15 ) ) ;
#136 = FACE_OUTER_BOUND ( 'NONE', #15, .T. ) ;
#137 = CARTESIAN_POINT ( 'NONE',  ( 0.0000000000000000000, 0.0000000000000000000, 0.0000000000000000000 ) ) ;
#138 = DIRECTION ( 'NONE',  ( 3.491481338843133355E-15, -1.224646799147353207E-16, 1.000000000000000000 ) ) ;
#139 = DATE_AND_TIME ( #111, #202 ) ;
#140 = ORGANIZATION ( 'UNSPECIFIED', 'UNSPECIFIED', '' ) ;
#141 = DIRECTION ( 'NONE',  ( 1.000000000000000000, 0.0000000000000000000, -3.614007241618349165E-15 ) ) ;
#142 = CALENDAR_DATE ( 2021, 10, 11 ) ;
#143 = DESIGN_CONTEXT ( 'detailed design', #216, 'design' ) ;
#144 = APPROVAL_DATE_TIME ( #53, #145 ) ;
#145 = APPROVAL ( #4, 'UNSPECIFIED' ) ;
#146 = PLANE ( 'NONE',  #75 ) ;
#147 = ORIENTED_EDGE ( 'NONE', *, *, #124, .F. ) ;
#148 = ADVANCED_FACE ( 'NONE', ( #149 ), #110, .F. ) ;
#149 = FACE_OUTER_BOUND ( 'NONE', #185, .T. ) ;
#150 = DIRECTION ( 'NONE',  ( 0.0000000000000000000, 1.000000000000000000, 0.0000000000000000000 ) ) ;
#151 = EDGE_LOOP ( 'NONE', ( #27 ) ) ;
#152 = CARTESIAN_POINT ( 'NONE',  ( 8.379555213223512164E-15, 0.0000000000000000000, 2.399999999999997691 ) ) ;
#153 = CIRCLE ( 'NONE', #188, 1.199999999999999956 ) ;
#154 = CARTESIAN_POINT ( 'NONE',  ( 1.728283262727351074E-13, 2.999999999999995559, 49.50000000000000000 ) ) ;
#155 = CARTESIAN_POINT ( 'NONE',  ( 1.745740669421566678E-13, 2.499999999999995559, 50.00000000000000000 ) ) ;
#156 = DATE_TIME_ROLE ( 'classification_date' ) ;
#157 = FACE_OUTER_BOUND ( 'NONE', #129, .T. ) ;
#158 = ADVANCED_FACE ( 'NONE', ( #126 ), #146, .F. ) ;
#159 = CIRCLE ( 'NONE', #100, 3.000000000000001776 ) ;
#160 =( LENGTH_UNIT ( ) NAMED_UNIT ( * ) SI_UNIT ( .MILLI., .METRE. ) );
#161 = CC_DESIGN_DATE_AND_TIME_ASSIGNMENT ( #106, #156, ( #193 ) ) ;
#162 = FACE_OUTER_BOUND ( 'NONE', #59, .T. ) ;
#163 = DATE_AND_TIME ( #210, #120 ) ;
#164 = TOROIDAL_SURFACE ( 'NONE', #50, 9.199999999999999289, 8.000000000000000000 ) ;
#165 = ORIENTED_EDGE ( 'NONE', *, *, #98, .T. ) ;
#166 = AXIS2_PLACEMENT_3D ( 'NONE', #152, #104, #134 ) ;
#167 = CC_DESIGN_PERSON_AND_ORGANIZATION_ASSIGNMENT ( #89, #87, ( #92 ) ) ;
#168 = LOCAL_TIME ( 8, 14, 38.00000000000000000, #22 ) ;
#169 = DIRECTION ( 'NONE',  ( 3.491481338843133355E-15, -0.0000000000000000000, 1.000000000000000000 ) ) ;
#170 = CARTESIAN_POINT ( 'NONE',  ( 1.728283262727351074E-13, -6.062001655779398511E-15, 49.50000000000000000 ) ) ;
#171 = ADVANCED_FACE ( 'NONE', ( #52, #42 ), #164, .F. ) ;
#172 = VERTEX_POINT ( 'NONE', #86 ) ;
#173 = AXIS2_PLACEMENT_3D ( 'NONE', #36, #35, #85 ) ;
#174 = VERTEX_POINT ( 'NONE', #3 ) ;
#175 = VERTEX_POINT ( 'NONE', #213 ) ;
#176 = VERTEX_POINT ( 'NONE', #155 ) ;
#177 = APPROVAL_STATUS ( 'not_yet_approved' ) ;
#178 = DIRECTION ( 'NONE',  ( 0.0000000000000000000, 0.0000000000000000000, 1.000000000000000000 ) ) ;
#179 = DIRECTION ( 'NONE',  ( -3.491481338843133355E-15, 1.224646799147353207E-16, -1.000000000000000000 ) ) ;
#180 = ORIENTED_EDGE ( 'NONE', *, *, #115, .T. ) ;
#181 = ADVANCED_FACE ( 'NONE', ( #162 ), #17, .T. ) ;
#182 = LOCAL_TIME ( 8, 14, 38.00000000000000000, #40 ) ;
#183 = ORIENTED_EDGE ( 'NONE', *, *, #218, .T. ) ;
#184 = CALENDAR_DATE ( 2021, 10, 11 ) ;
#185 = EDGE_LOOP ( 'NONE', ( #58 ) ) ;
#186 = CONICAL_SURFACE ( 'NONE', #8, 2.500000000000001776, 0.7853981633974479459 ) ;
#187 = CARTESIAN_POINT ( 'NONE',  ( 8.379555213223516897E-15, -3.469446951953619612E-16, 2.399999999999999467 ) ) ;
#188 = AXIS2_PLACEMENT_3D ( 'NONE', #18, #82, #135 ) ;
#189 = UNCERTAINTY_MEASURE_WITH_UNIT (LENGTH_MEASURE( 1.000000000000000082E-05 ), #160, 'distance_accuracy_value', 'NONE');
#190 = ADVANCED_FACE ( 'NONE', ( #21 ), #5, .F. ) ;
#191 = PERSON_AND_ORGANIZATION ( #215, #140 ) ;
#192 = CIRCLE ( 'NONE', #62, 2.500000000000001776 ) ;
#193 = SECURITY_CLASSIFICATION ( '', '', #49 ) ;
#194 = DIRECTION ( 'NONE',  ( -4.275831445896958607E-31, -1.000000000000000000, -1.224646799147353207E-16 ) ) ;
#195 = PERSON_AND_ORGANIZATION_ROLE ( 'classification_officer' ) ;
#196 = PERSON_AND_ORGANIZATION ( #215, #140 ) ;
#197 = DIRECTION ( 'NONE',  ( 3.491481338843133355E-15, -1.224646799147353207E-16, 1.000000000000000000 ) ) ;
#198 = APPROVAL_ROLE ( '' ) ;
#199 = PERSON_AND_ORGANIZATION ( #215, #140 ) ;
#200 = CARTESIAN_POINT ( 'NONE',  ( 8.379555213223516897E-15, -3.469446951953619612E-16, 2.399999999999999467 ) ) ;
#201 = PRODUCT ( '64390', '64390', '', ( #94 ) ) ;
#202 = LOCAL_TIME ( 8, 14, 38.00000000000000000, #109 ) ;
#203 = DIRECTION ( 'NONE',  ( -1.000000000000000000, 0.0000000000000000000, 3.469446951953615372E-15 ) ) ;
#204 = AXIS2_PLACEMENT_3D ( 'NONE', #187, #138, #116 ) ;
#205 = DIRECTION ( 'NONE',  ( 3.491481338843133355E-15, -0.0000000000000000000, 1.000000000000000000 ) ) ;
#206 = PRODUCT_RELATED_PRODUCT_CATEGORY ( 'detail', '', ( #201 ) ) ;
#207 = PRODUCT_DEFINITION_SHAPE ( 'NONE', 'NONE',  #34 ) ;
#208 = PERSON_AND_ORGANIZATION ( #215, #140 ) ;
#209 = VERTEX_POINT ( 'NONE', #39 ) ;
#210 = CALENDAR_DATE ( 2021, 10, 11 ) ;
#211 = DIRECTION ( 'NONE',  ( -4.275831445896958607E-31, -1.000000000000000000, -1.224646799147353207E-16 ) ) ;
#212 =( NAMED_UNIT ( * ) PLANE_ANGLE_UNIT ( ) SI_UNIT ( $, .RADIAN. ) );
#213 = CARTESIAN_POINT ( 'NONE',  ( 1.200000000000008171, 0.0000000000000000000, 2.399999999999993250 ) ) ;
#214 = CARTESIAN_POINT ( 'NONE',  ( 1.745740669421566678E-13, -6.123233995736766085E-15, 50.00000000000000000 ) ) ;
#215 = PERSON ( 'UNSPECIFIED', 'UNSPECIFIED', 'UNSPECIFIED', ('UNSPECIFIED'), ('UNSPECIFIED'), ('UNSPECIFIED') ) ;
#216 = APPLICATION_CONTEXT ( 'configuration controlled 3d designs of mechanical parts and assemblies' ) ;
#217 = CLOSED_SHELL ( 'NONE', ( #181, #127, #190 ) ) ;
#218 = EDGE_CURVE ( 'NONE', #175, #175, #105, .T. ) ;
#219 = CARTESIAN_POINT ( 'NONE',  ( 2.603140202802904262E-14, 0.0000000000000000000, 7.455689863905812231 ) ) ;
#220 = EDGE_LOOP ( 'NONE', ( #95 ) ) ;
#221 = FACE_OUTER_BOUND ( 'NONE', #151, .T. ) ;
#222 = MANIFOLD_SOLID_BREP ( 'Corps-Déplacer/Copier1[2]', #217 ) ;
#223 = CC_DESIGN_SECURITY_CLASSIFICATION ( #193, ( #92 ) ) ;
ENDSEC;
END-ISO-10303-21;
