ISO-10303-21;
HEADER;
FILE_DESCRIPTION (( 'STEP AP203' ),
    '1' );
FILE_NAME ('64389.step',
    '2021-11-10T07:14:37',
    ( '' ),
    ( '' ),
    'SwSTEP 2.0',
    'SolidWorks 2019',
    '' );
FILE_SCHEMA (( 'CONFIG_CONTROL_DESIGN' ));
ENDSEC;

DATA;
#1 = ORIENTED_EDGE ( 'NONE', *, *, #141, .T. ) ;
#2 = DIRECTION ( 'NONE',  ( 0.0000000000000000000, 1.000000000000000000, 0.0000000000000000000 ) ) ;
#3 = CC_DESIGN_APPROVAL ( #94, ( #15 ) ) ;
#4 = PERSON_AND_ORGANIZATION ( #9, #109 ) ;
#5 = MANIFOLD_SOLID_BREP ( 'Corps-Déplacer/Copier1[1]', #113 ) ;
#6 = CONICAL_SURFACE ( 'NONE', #102, 2.500000000000001776, 0.7853981633974479459 ) ;
#7 = MECHANICAL_CONTEXT ( 'NONE', #148, 'mechanical' ) ;
#8 = DIRECTION ( 'NONE',  ( 3.491481338843133355E-15, -1.224646799147353207E-16, 1.000000000000000000 ) ) ;
#9 = PERSON ( 'UNSPECIFIED', 'UNSPECIFIED', 'UNSPECIFIED', ('UNSPECIFIED'), ('UNSPECIFIED'), ('UNSPECIFIED') ) ;
#10 = EDGE_LOOP ( 'NONE', ( #93 ) ) ;
#11 = DIRECTION ( 'NONE',  ( 0.0000000000000000000, 1.000000000000000000, 0.0000000000000000000 ) ) ;
#12 = APPROVAL_DATE_TIME ( #103, #25 ) ;
#13 = DIRECTION ( 'NONE',  ( 4.275831445896958607E-31, 1.000000000000000000, 1.224646799147353207E-16 ) ) ;
#14 = DIRECTION ( 'NONE',  ( 3.491481338843133355E-15, -1.224646799147353207E-16, 1.000000000000000000 ) ) ;
#15 = PRODUCT_DEFINITION_FORMATION_WITH_SPECIFIED_SOURCE ( 'ANY', '', #120, .NOT_KNOWN. ) ;
#16 = DIRECTION ( 'NONE',  ( 1.000000000000000000, 0.0000000000000000000, -3.394024192128535962E-15 ) ) ;
#17 = SHAPE_DEFINITION_REPRESENTATION ( #185, #190 ) ;
#18 = DESIGN_CONTEXT ( 'detailed design', #161, 'design' ) ;
#19 = EDGE_LOOP ( 'NONE', ( #74 ) ) ;
#20 = APPROVAL ( #81, 'UNSPECIFIED' ) ;
#21 = ADVANCED_FACE ( 'NONE', ( #138 ), #187, .T. ) ;
#22 = EDGE_CURVE ( 'NONE', #183, #183, #142, .T. ) ;
#23 = SECURITY_CLASSIFICATION ( '', '', #33 ) ;
#24 = DIRECTION ( 'NONE',  ( 0.0000000000000000000, 0.0000000000000000000, 1.000000000000000000 ) ) ;
#25 = APPROVAL ( #105, 'UNSPECIFIED' ) ;
#26 = CLOSED_SHELL ( 'NONE', ( #21, #174, #156 ) ) ;
#27 = CC_DESIGN_APPROVAL ( #20, ( #134 ) ) ;
#28 = APPROVAL_DATE_TIME ( #213, #20 ) ;
#29 =( NAMED_UNIT ( * ) SI_UNIT ( $, .STERADIAN. ) SOLID_ANGLE_UNIT ( ) );
#30 = EDGE_LOOP ( 'NONE', ( #1 ) ) ;
#31 = ADVANCED_FACE ( 'NONE', ( #49, #122 ), #6, .T. ) ;
#32 = DIRECTION ( 'NONE',  ( -3.491481338843133355E-15, 0.0000000000000000000, -1.000000000000000000 ) ) ;
#33 = SECURITY_CLASSIFICATION_LEVEL ( 'unclassified' ) ;
#34 = ORIENTED_EDGE ( 'NONE', *, *, #182, .T. ) ;
#35 = LOCAL_TIME ( 8, 14, 37.00000000000000000, #68 ) ;
#36 = APPROVAL_DATE_TIME ( #116, #94 ) ;
#37 = DIRECTION ( 'NONE',  ( -4.275831445896958607E-31, -1.000000000000000000, -1.224646799147353207E-16 ) ) ;
#38 = ORIENTED_EDGE ( 'NONE', *, *, #211, .T. ) ;
#39 = EDGE_LOOP ( 'NONE', ( #91 ) ) ;
#40 = AXIS2_PLACEMENT_3D ( 'NONE', #206, #192, #13 ) ;
#41 = DIRECTION ( 'NONE',  ( 1.000000000000000000, 0.0000000000000000000, -3.394024192128535962E-15 ) ) ;
#42 = ADVANCED_FACE ( 'NONE', ( #219 ), #86, .F. ) ;
#43 = CIRCLE ( 'NONE', #175, 2.500000000000001776 ) ;
#44 =( LENGTH_UNIT ( ) NAMED_UNIT ( * ) SI_UNIT ( .MILLI., .METRE. ) );
#45 = CC_DESIGN_PERSON_AND_ORGANIZATION_ASSIGNMENT ( #55, #164, ( #23 ) ) ;
#46 = CALENDAR_DATE ( 2021, 10, 11 ) ;
#47 = CIRCLE ( 'NONE', #171, 1.149999999999999911 ) ;
#48 =( NAMED_UNIT ( * ) PLANE_ANGLE_UNIT ( ) SI_UNIT ( $, .RADIAN. ) );
#49 = FACE_OUTER_BOUND ( 'NONE', #64, .T. ) ;
#50 = CARTESIAN_POINT ( 'NONE',  ( 1.745740669421566678E-13, -6.123233995736766085E-15, 50.00000000000000000 ) ) ;
#51 = AXIS2_PLACEMENT_3D ( 'NONE', #62, #24, #153 ) ;
#52 = DATE_AND_TIME ( #124, #35 ) ;
#53 = CC_DESIGN_PERSON_AND_ORGANIZATION_ASSIGNMENT ( #173, #83, ( #120 ) ) ;
#54 = CARTESIAN_POINT ( 'NONE',  ( 8.030407079339203562E-15, 0.0000000000000000000, 2.299999999999998934 ) ) ;
#55 = PERSON_AND_ORGANIZATION ( #9, #109 ) ;
#56 = CARTESIAN_POINT ( 'NONE',  ( 8.030407079339200406E-15, 0.0000000000000000000, 2.299999999999998046 ) ) ;
#57 = ORIENTED_EDGE ( 'NONE', *, *, #75, .T. ) ;
#58 = ORIENTED_EDGE ( 'NONE', *, *, #22, .T. ) ;
#59 = APPROVAL_PERSON_ORGANIZATION ( #135, #20, #204 ) ;
#60 = CARTESIAN_POINT ( 'NONE',  ( 1.150000000000007905, 0.0000000000000000000, 2.299999999999994493 ) ) ;
#61 = CC_DESIGN_DATE_AND_TIME_ASSIGNMENT ( #52, #209, ( #23 ) ) ;
#62 = CARTESIAN_POINT ( 'NONE',  ( 0.0000000000000000000, 0.0000000000000000000, 0.0000000000000000000 ) ) ;
#63 = DATE_AND_TIME ( #152, #131 ) ;
#64 = EDGE_LOOP ( 'NONE', ( #202 ) ) ;
#65 = CC_DESIGN_APPROVAL ( #25, ( #23 ) ) ;
#66 = ADVANCED_FACE ( 'NONE', ( #191, #69 ), #140, .T. ) ;
#67 = CARTESIAN_POINT ( 'NONE',  ( 1.728283262727351074E-13, -6.062001655779398511E-15, 49.50000000000000000 ) ) ;
#68 = COORDINATED_UNIVERSAL_TIME_OFFSET ( 1, 0, .AHEAD. ) ;
#69 = FACE_OUTER_BOUND ( 'NONE', #19, .T. ) ;
#70 = CC_DESIGN_PERSON_AND_ORGANIZATION_ASSIGNMENT ( #110, #107, ( #15 ) ) ;
#71 = DIRECTION ( 'NONE',  ( 1.000000000000000000, 0.0000000000000000000, -3.491481338843133750E-15 ) ) ;
#72 = CARTESIAN_POINT ( 'NONE',  ( 1.149999999999999911, 0.0000000000000000000, -4.015203539669603359E-15 ) ) ;
#73 = EDGE_LOOP ( 'NONE', ( #57 ) ) ;
#74 = ORIENTED_EDGE ( 'NONE', *, *, #75, .F. ) ;
#75 = EDGE_CURVE ( 'NONE', #97, #97, #136, .T. ) ;
#76 = LOCAL_TIME ( 8, 14, 37.00000000000000000, #198 ) ;
#77 = DIRECTION ( 'NONE',  ( 3.491481338843133355E-15, -0.0000000000000000000, 1.000000000000000000 ) ) ;
#78 = AXIS2_PLACEMENT_3D ( 'NONE', #180, #14, #223 ) ;
#79 = APPROVAL_STATUS ( 'not_yet_approved' ) ;
#80 = ORIENTED_EDGE ( 'NONE', *, *, #211, .F. ) ;
#81 = APPROVAL_STATUS ( 'not_yet_approved' ) ;
#82 = DIRECTION ( 'NONE',  ( -4.275831445896958607E-31, -1.000000000000000000, -1.224646799147353207E-16 ) ) ;
#83 = PERSON_AND_ORGANIZATION_ROLE ( 'design_owner' ) ;
#84 = AXIS2_PLACEMENT_3D ( 'NONE', #67, #123, #155 ) ;
#85 = MANIFOLD_SOLID_BREP ( 'Corps-Déplacer/Copier1[2]', #26 ) ;
#86 = PLANE ( 'NONE',  #128 ) ;
#87 = DIRECTION ( 'NONE',  ( -1.000000000000000000, 0.0000000000000000000, 3.469446951953615372E-15 ) ) ;
#88 = DIRECTION ( 'NONE',  ( 3.491481338843133355E-15, -0.0000000000000000000, 1.000000000000000000 ) ) ;
#89 = DIRECTION ( 'NONE',  ( 3.491481338843133355E-15, -1.224646799147353207E-16, 1.000000000000000000 ) ) ;
#90 = CALENDAR_DATE ( 2021, 10, 11 ) ;
#91 = ORIENTED_EDGE ( 'NONE', *, *, #22, .F. ) ;
#92 = CIRCLE ( 'NONE', #221, 1.149999999999999911 ) ;
#93 = ORIENTED_EDGE ( 'NONE', *, *, #189, .T. ) ;
#94 = APPROVAL ( #79, 'UNSPECIFIED' ) ;
#95 = LOCAL_TIME ( 8, 14, 37.00000000000000000, #139 ) ;
#96 = APPLICATION_PROTOCOL_DEFINITION ( 'international standard', 'config_control_design', 1994, #148 ) ;
#97 = VERTEX_POINT ( 'NONE', #149 ) ;
#98 = CARTESIAN_POINT ( 'NONE',  ( 8.030407079339206717E-15, -3.324886662288886509E-16, 2.299999999999999822 ) ) ;
#99 = PERSON_AND_ORGANIZATION ( #9, #109 ) ;
#100 = PERSON_AND_ORGANIZATION_ROLE ( 'creator' ) ;
#101 = CARTESIAN_POINT ( 'NONE',  ( 8.030407079339206717E-15, -3.324886662288886509E-16, 2.299999999999999822 ) ) ;
#102 = AXIS2_PLACEMENT_3D ( 'NONE', #50, #104, #11 ) ;
#103 = DATE_AND_TIME ( #90, #95 ) ;
#104 = DIRECTION ( 'NONE',  ( -3.491481338843133355E-15, 1.224646799147353207E-16, -1.000000000000000000 ) ) ;
#105 = APPROVAL_STATUS ( 'not_yet_approved' ) ;
#106 = FACE_OUTER_BOUND ( 'NONE', #73, .T. ) ;
#107 = PERSON_AND_ORGANIZATION_ROLE ( 'creator' ) ;
#108 = DIRECTION ( 'NONE',  ( 1.000000000000000000, 0.0000000000000000000, -3.491481338843133355E-15 ) ) ;
#109 = ORGANIZATION ( 'UNSPECIFIED', 'UNSPECIFIED', '' ) ;
#110 = PERSON_AND_ORGANIZATION ( #9, #109 ) ;
#111 = UNCERTAINTY_MEASURE_WITH_UNIT (LENGTH_MEASURE( 1.000000000000000082E-05 ), #44, 'distance_accuracy_value', 'NONE');
#112 = ORIENTED_EDGE ( 'NONE', *, *, #182, .F. ) ;
#113 = CLOSED_SHELL ( 'NONE', ( #66, #31, #42, #170, #146 ) ) ;
#114 = CC_DESIGN_DATE_AND_TIME_ASSIGNMENT ( #63, #169, ( #134 ) ) ;
#115 = DIRECTION ( 'NONE',  ( -3.491481338843133355E-15, 1.224646799147353207E-16, -1.000000000000000000 ) ) ;
#116 = DATE_AND_TIME ( #46, #76 ) ;
#117 = CARTESIAN_POINT ( 'NONE',  ( 1.745740669421566678E-13, 2.499999999999995559, 50.00000000000000000 ) ) ;
#118 = TOROIDAL_SURFACE ( 'NONE', #163, 9.150000000000002132, 8.000000000000000000 ) ;
#119 = DIRECTION ( 'NONE',  ( 3.491481338843133355E-15, -0.0000000000000000000, 1.000000000000000000 ) ) ;
#120 = PRODUCT ( '64389', '64389', '', ( #7 ) ) ;
#121 = APPLICATION_PROTOCOL_DEFINITION ( 'international standard', 'config_control_design', 1994, #161 ) ;
#122 = FACE_BOUND ( 'NONE', #196, .T. ) ;
#123 = DIRECTION ( 'NONE',  ( -3.491481338843133355E-15, 1.224646799147353207E-16, -1.000000000000000000 ) ) ;
#124 = CALENDAR_DATE ( 2021, 10, 11 ) ;
#125 = DIRECTION ( 'NONE',  ( 4.275831445896958607E-31, 1.000000000000000000, 1.224646799147353207E-16 ) ) ;
#126 = AXIS2_PLACEMENT_3D ( 'NONE', #98, #8, #82 ) ;
#127 = FACE_OUTER_BOUND ( 'NONE', #130, .T. ) ;
#128 = AXIS2_PLACEMENT_3D ( 'NONE', #176, #158, #125 ) ;
#129 = EDGE_LOOP ( 'NONE', ( #167 ) ) ;
#130 = EDGE_LOOP ( 'NONE', ( #58 ) ) ;
#131 = LOCAL_TIME ( 8, 14, 37.00000000000000000, #217 ) ;
#132 = VERTEX_POINT ( 'NONE', #215 ) ;
#133 = APPROVAL_ROLE ( '' ) ;
#134 = PRODUCT_DEFINITION ( 'UNKNOWN', '', #15, #18 ) ;
#135 = PERSON_AND_ORGANIZATION ( #9, #109 ) ;
#136 = CIRCLE ( 'NONE', #184, 2.999999999999999112 ) ;
#137 = EDGE_LOOP ( 'NONE', ( #112 ) ) ;
#138 = FACE_OUTER_BOUND ( 'NONE', #220, .T. ) ;
#139 = COORDINATED_UNIVERSAL_TIME_OFFSET ( 1, 0, .AHEAD. ) ;
#140 = CYLINDRICAL_SURFACE ( 'NONE', #40, 2.999999999999999112 ) ;
#141 = EDGE_CURVE ( 'NONE', #199, #199, #145, .T. ) ;
#142 = CIRCLE ( 'NONE', #154, 1.149999999999999911 ) ;
#143 = CARTESIAN_POINT ( 'NONE',  ( 8.030407079339200406E-15, 0.0000000000000000000, 2.299999999999998046 ) ) ;
#144 = DIRECTION ( 'NONE',  ( 3.491481338843133355E-15, -0.0000000000000000000, 1.000000000000000000 ) ) ;
#145 = CIRCLE ( 'NONE', #84, 3.000000000000001776 ) ;
#146 = ADVANCED_FACE ( 'NONE', ( #218 ), #205, .F. ) ;
#147 = APPROVAL_PERSON_ORGANIZATION ( #4, #94, #133 ) ;
#148 = APPLICATION_CONTEXT ( 'configuration controlled 3d designs of mechanical parts and assemblies' ) ;
#149 = CARTESIAN_POINT ( 'NONE',  ( -2.999999999999973355, 0.0000000000000000000, 7.416395215383587036 ) ) ;
#150 = CC_DESIGN_PERSON_AND_ORGANIZATION_ASSIGNMENT ( #177, #157, ( #15 ) ) ;
#151 = VERTEX_POINT ( 'NONE', #60 ) ;
#152 = CALENDAR_DATE ( 2021, 10, 11 ) ;
#153 = DIRECTION ( 'NONE',  ( 1.000000000000000000, 0.0000000000000000000, 0.0000000000000000000 ) ) ;
#154 = AXIS2_PLACEMENT_3D ( 'NONE', #200, #119, #203 ) ;
#155 = DIRECTION ( 'NONE',  ( 0.0000000000000000000, 1.000000000000000000, 0.0000000000000000000 ) ) ;
#156 = ADVANCED_FACE ( 'NONE', ( #162 ), #194, .F. ) ;
#157 = PERSON_AND_ORGANIZATION_ROLE ( 'design_supplier' ) ;
#158 = DIRECTION ( 'NONE',  ( -3.491481338843133355E-15, 1.224646799147353207E-16, -1.000000000000000000 ) ) ;
#159 = PERSON_AND_ORGANIZATION ( #9, #109 ) ;
#160 = CARTESIAN_POINT ( 'NONE',  ( 2.589420549599725743E-14, 0.0000000000000000000, 7.416395215383576378 ) ) ;
#161 = APPLICATION_CONTEXT ( 'configuration controlled 3d designs of mechanical parts and assemblies' ) ;
#162 = FACE_OUTER_BOUND ( 'NONE', #39, .T. ) ;
#163 = AXIS2_PLACEMENT_3D ( 'NONE', #54, #88, #108 ) ;
#164 = PERSON_AND_ORGANIZATION_ROLE ( 'classification_officer' ) ;
#165 = CYLINDRICAL_SURFACE ( 'NONE', #166, 1.149999999999999911 ) ;
#166 = AXIS2_PLACEMENT_3D ( 'NONE', #222, #210, #71 ) ;
#167 = ORIENTED_EDGE ( 'NONE', *, *, #189, .F. ) ;
#168 = APPROVAL_PERSON_ORGANIZATION ( #159, #25, #181 ) ;
#169 = DATE_TIME_ROLE ( 'creation_date' ) ;
#170 = ADVANCED_FACE ( 'NONE', ( #208, #106 ), #118, .F. ) ;
#171 = AXIS2_PLACEMENT_3D ( 'NONE', #56, #77, #41 ) ;
#172 = VERTEX_POINT ( 'NONE', #117 ) ;
#173 = PERSON_AND_ORGANIZATION ( #9, #109 ) ;
#174 = ADVANCED_FACE ( 'NONE', ( #127, #178 ), #165, .T. ) ;
#175 = AXIS2_PLACEMENT_3D ( 'NONE', #212, #115, #2 ) ;
#176 = CARTESIAN_POINT ( 'NONE',  ( 1.745740669421566678E-13, 1.874699728327314346E-32, 50.00000000000000000 ) ) ;
#177 = PERSON_AND_ORGANIZATION ( #9, #109 ) ;
#178 = FACE_OUTER_BOUND ( 'NONE', #137, .T. ) ;
#179 = CC_DESIGN_PERSON_AND_ORGANIZATION_ASSIGNMENT ( #99, #100, ( #134 ) ) ;
#180 = CARTESIAN_POINT ( 'NONE',  ( -3.206816838010677856E-31, 1.124799933034399755E-32, -9.184688465421452921E-17 ) ) ;
#181 = APPROVAL_ROLE ( '' ) ;
#182 = EDGE_CURVE ( 'NONE', #151, #151, #92, .T. ) ;
#183 = VERTEX_POINT ( 'NONE', #72 ) ;
#184 = AXIS2_PLACEMENT_3D ( 'NONE', #160, #32, #87 ) ;
#185 = PRODUCT_DEFINITION_SHAPE ( 'NONE', 'NONE',  #134 ) ;
#186 = CARTESIAN_POINT ( 'NONE',  ( 1.728283262727351074E-13, 2.999999999999995559, 49.50000000000000000 ) ) ;
#187 = PLANE ( 'NONE',  #126 ) ;
#188 = COORDINATED_UNIVERSAL_TIME_OFFSET ( 1, 0, .AHEAD. ) ;
#189 = EDGE_CURVE ( 'NONE', #132, #132, #47, .T. ) ;
#190 = ADVANCED_BREP_SHAPE_REPRESENTATION ( '64389', ( #5, #85, #51 ), #216 ) ;
#191 = FACE_OUTER_BOUND ( 'NONE', #30, .T. ) ;
#192 = DIRECTION ( 'NONE',  ( -3.491481338843133355E-15, 1.224646799147353207E-16, -1.000000000000000000 ) ) ;
#193 = EDGE_LOOP ( 'NONE', ( #80 ) ) ;
#194 = PLANE ( 'NONE',  #78 ) ;
#195 = CC_DESIGN_SECURITY_CLASSIFICATION ( #23, ( #15 ) ) ;
#196 = EDGE_LOOP ( 'NONE', ( #38 ) ) ;
#197 = LOCAL_TIME ( 8, 14, 37.00000000000000000, #188 ) ;
#198 = COORDINATED_UNIVERSAL_TIME_OFFSET ( 1, 0, .AHEAD. ) ;
#199 = VERTEX_POINT ( 'NONE', #186 ) ;
#200 = CARTESIAN_POINT ( 'NONE',  ( 0.0000000000000000000, 0.0000000000000000000, 0.0000000000000000000 ) ) ;
#201 = AXIS2_PLACEMENT_3D ( 'NONE', #101, #89, #37 ) ;
#202 = ORIENTED_EDGE ( 'NONE', *, *, #141, .F. ) ;
#203 = DIRECTION ( 'NONE',  ( 1.000000000000000000, 0.0000000000000000000, -3.491481338843133750E-15 ) ) ;
#204 = APPROVAL_ROLE ( '' ) ;
#205 = PLANE ( 'NONE',  #201 ) ;
#206 = CARTESIAN_POINT ( 'NONE',  ( 0.0000000000000000000, 0.0000000000000000000, 0.0000000000000000000 ) ) ;
#207 = PRODUCT_RELATED_PRODUCT_CATEGORY ( 'detail', '', ( #120 ) ) ;
#208 = FACE_OUTER_BOUND ( 'NONE', #10, .T. ) ;
#209 = DATE_TIME_ROLE ( 'classification_date' ) ;
#210 = DIRECTION ( 'NONE',  ( 3.491481338843133355E-15, -0.0000000000000000000, 1.000000000000000000 ) ) ;
#211 = EDGE_CURVE ( 'NONE', #172, #172, #43, .T. ) ;
#212 = CARTESIAN_POINT ( 'NONE',  ( 1.745740669421566678E-13, -6.123233995736766085E-15, 50.00000000000000000 ) ) ;
#213 = DATE_AND_TIME ( #214, #197 ) ;
#214 = CALENDAR_DATE ( 2021, 10, 11 ) ;
#215 = CARTESIAN_POINT ( 'NONE',  ( 1.150000000000007905, 0.0000000000000000000, 2.299999999999994493 ) ) ;
#216 =( GEOMETRIC_REPRESENTATION_CONTEXT ( 3 ) GLOBAL_UNCERTAINTY_ASSIGNED_CONTEXT ( ( #111 ) ) GLOBAL_UNIT_ASSIGNED_CONTEXT ( ( #44, #48, #29 ) ) REPRESENTATION_CONTEXT ( 'NONE', 'WORKASPACE' ) );
#217 = COORDINATED_UNIVERSAL_TIME_OFFSET ( 1, 0, .AHEAD. ) ;
#218 = FACE_OUTER_BOUND ( 'NONE', #129, .T. ) ;
#219 = FACE_OUTER_BOUND ( 'NONE', #193, .T. ) ;
#220 = EDGE_LOOP ( 'NONE', ( #34 ) ) ;
#221 = AXIS2_PLACEMENT_3D ( 'NONE', #143, #144, #16 ) ;
#222 = CARTESIAN_POINT ( 'NONE',  ( 0.0000000000000000000, 0.0000000000000000000, 0.0000000000000000000 ) ) ;
#223 = DIRECTION ( 'NONE',  ( -4.275831445896958607E-31, -1.000000000000000000, -1.224646799147353207E-16 ) ) ;
ENDSEC;
END-ISO-10303-21;
