ISO-10303-21;
HEADER;
FILE_DESCRIPTION (( 'STEP AP203' ),
    '1' );
FILE_NAME ('64388.step',
    '2021-11-10T07:14:37',
    ( '' ),
    ( '' ),
    'SwSTEP 2.0',
    'SolidWorks 2019',
    '' );
FILE_SCHEMA (( 'CONFIG_CONTROL_DESIGN' ));
ENDSEC;

DATA;
#1 = DIRECTION ( 'NONE',  ( -4.275831445896958607E-31, -1.000000000000000000, -1.224646799147353207E-16 ) ) ;
#2 = ADVANCED_FACE ( 'NONE', ( #220, #152 ), #89, .F. ) ;
#3 = CLOSED_SHELL ( 'NONE', ( #68, #29, #172 ) ) ;
#4 = PRODUCT_DEFINITION ( 'UNKNOWN', '', #155, #17 ) ;
#5 = DIRECTION ( 'NONE',  ( 3.491481338843133355E-15, -0.0000000000000000000, 1.000000000000000000 ) ) ;
#6 = AXIS2_PLACEMENT_3D ( 'NONE', #178, #138, #86 ) ;
#7 = DIRECTION ( 'NONE',  ( -3.491481338843133355E-15, 0.0000000000000000000, -1.000000000000000000 ) ) ;
#8 = PRODUCT ( '64388', '64388', '', ( #30 ) ) ;
#9 = SECURITY_CLASSIFICATION_LEVEL ( 'unclassified' ) ;
#10 = ORIENTED_EDGE ( 'NONE', *, *, #51, .F. ) ;
#11 = CALENDAR_DATE ( 2021, 10, 11 ) ;
#12 = PRODUCT_RELATED_PRODUCT_CATEGORY ( 'detail', '', ( #8 ) ) ;
#13 =( NAMED_UNIT ( * ) PLANE_ANGLE_UNIT ( ) SI_UNIT ( $, .RADIAN. ) );
#14 = ORIENTED_EDGE ( 'NONE', *, *, #112, .F. ) ;
#15 = APPLICATION_PROTOCOL_DEFINITION ( 'international standard', 'config_control_design', 1994, #164 ) ;
#16 = ORIENTED_EDGE ( 'NONE', *, *, #184, .F. ) ;
#17 = DESIGN_CONTEXT ( 'detailed design', #164, 'design' ) ;
#18 = CARTESIAN_POINT ( 'NONE',  ( 0.0000000000000000000, 0.0000000000000000000, 0.0000000000000000000 ) ) ;
#19 = PLANE ( 'NONE',  #106 ) ;
#20 = AXIS2_PLACEMENT_3D ( 'NONE', #38, #21, #180 ) ;
#21 = DIRECTION ( 'NONE',  ( -3.491481338843133355E-15, 1.224646799147353207E-16, -1.000000000000000000 ) ) ;
#22 = CIRCLE ( 'NONE', #195, 2.999999999999999112 ) ;
#23 = CONICAL_SURFACE ( 'NONE', #87, 2.500000000000001776, 0.7853981633974479459 ) ;
#24 = APPROVAL ( #28, 'UNSPECIFIED' ) ;
#25 = ORIENTED_EDGE ( 'NONE', *, *, #36, .T. ) ;
#26 = COORDINATED_UNIVERSAL_TIME_OFFSET ( 1, 0, .AHEAD. ) ;
#27 = EDGE_LOOP ( 'NONE', ( #52 ) ) ;
#28 = APPROVAL_STATUS ( 'not_yet_approved' ) ;
#29 = ADVANCED_FACE ( 'NONE', ( #217, #190 ), #31, .T. ) ;
#30 = MECHANICAL_CONTEXT ( 'NONE', #123, 'mechanical' ) ;
#31 = CYLINDRICAL_SURFACE ( 'NONE', #6, 1.100000000000000311 ) ;
#32 = FACE_OUTER_BOUND ( 'NONE', #215, .T. ) ;
#33 = DATE_AND_TIME ( #191, #43 ) ;
#34 = CIRCLE ( 'NONE', #77, 2.500000000000001776 ) ;
#35 = APPROVAL_DATE_TIME ( #50, #162 ) ;
#36 = EDGE_CURVE ( 'NONE', #72, #72, #210, .T. ) ;
#37 = FACE_OUTER_BOUND ( 'NONE', #132, .T. ) ;
#38 = CARTESIAN_POINT ( 'NONE',  ( 1.745740669421566678E-13, 1.874699728327314346E-32, 50.00000000000000000 ) ) ;
#39 = ADVANCED_FACE ( 'NONE', ( #136, #102 ), #160, .T. ) ;
#40 = DIRECTION ( 'NONE',  ( -3.491481338843133355E-15, 1.224646799147353207E-16, -1.000000000000000000 ) ) ;
#41 = VERTEX_POINT ( 'NONE', #179 ) ;
#42 = FACE_OUTER_BOUND ( 'NONE', #99, .T. ) ;
#43 = LOCAL_TIME ( 8, 14, 37.00000000000000000, #125 ) ;
#44 = CC_DESIGN_SECURITY_CLASSIFICATION ( #207, ( #155 ) ) ;
#45 = VERTEX_POINT ( 'NONE', #161 ) ;
#46 = DIRECTION ( 'NONE',  ( -3.491481338843133355E-15, 1.224646799147353207E-16, -1.000000000000000000 ) ) ;
#47 = AXIS2_PLACEMENT_3D ( 'NONE', #18, #40, #157 ) ;
#48 = ADVANCED_FACE ( 'NONE', ( #42 ), #104, .F. ) ;
#49 = ADVANCED_BREP_SHAPE_REPRESENTATION ( '64388', ( #143, #141, #165 ), #134 ) ;
#50 = DATE_AND_TIME ( #166, #176 ) ;
#51 = EDGE_CURVE ( 'NONE', #119, #119, #223, .T. ) ;
#52 = ORIENTED_EDGE ( 'NONE', *, *, #51, .T. ) ;
#53 = EDGE_LOOP ( 'NONE', ( #169 ) ) ;
#54 = PERSON_AND_ORGANIZATION ( #181, #70 ) ;
#55 = DATE_AND_TIME ( #150, #219 ) ;
#56 = AXIS2_PLACEMENT_3D ( 'NONE', #137, #57, #196 ) ;
#57 = DIRECTION ( 'NONE',  ( 3.491481338843133355E-15, -0.0000000000000000000, 1.000000000000000000 ) ) ;
#58 = AXIS2_PLACEMENT_3D ( 'NONE', #117, #222, #208 ) ;
#59 = CARTESIAN_POINT ( 'NONE',  ( 1.100000000000000089, 0.0000000000000000000, -3.840629472727447480E-15 ) ) ;
#60 = CARTESIAN_POINT ( 'NONE',  ( 1.745740669421566678E-13, -6.123233995736766085E-15, 50.00000000000000000 ) ) ;
#61 = CARTESIAN_POINT ( 'NONE',  ( 7.681258945454893382E-15, -3.180326372624151928E-16, 2.199999999999999734 ) ) ;
#62 = COORDINATED_UNIVERSAL_TIME_OFFSET ( 1, 0, .AHEAD. ) ;
#63 = EDGE_LOOP ( 'NONE', ( #92 ) ) ;
#64 = APPROVAL_ROLE ( '' ) ;
#65 = CARTESIAN_POINT ( 'NONE',  ( 7.681258945454890226E-15, 0.0000000000000000000, 2.199999999999998845 ) ) ;
#66 = PERSON_AND_ORGANIZATION ( #181, #70 ) ;
#67 = PERSON_AND_ORGANIZATION ( #181, #70 ) ;
#68 = ADVANCED_FACE ( 'NONE', ( #151 ), #107, .T. ) ;
#69 = EDGE_LOOP ( 'NONE', ( #110 ) ) ;
#70 = ORGANIZATION ( 'UNSPECIFIED', 'UNSPECIFIED', '' ) ;
#71 = CC_DESIGN_APPROVAL ( #162, ( #155 ) ) ;
#72 = VERTEX_POINT ( 'NONE', #140 ) ;
#73 =( LENGTH_UNIT ( ) NAMED_UNIT ( * ) SI_UNIT ( .MILLI., .METRE. ) );
#74 = LOCAL_TIME ( 8, 14, 37.00000000000000000, #170 ) ;
#75 = DIRECTION ( 'NONE',  ( 1.000000000000000000, 0.0000000000000000000, -3.548298019043467945E-15 ) ) ;
#76 = DATE_AND_TIME ( #131, #74 ) ;
#77 = AXIS2_PLACEMENT_3D ( 'NONE', #60, #46, #91 ) ;
#78 = PERSON_AND_ORGANIZATION_ROLE ( 'classification_officer' ) ;
#79 = EDGE_LOOP ( 'NONE', ( #171 ) ) ;
#80 = DATE_AND_TIME ( #11, #167 ) ;
#81 = CIRCLE ( 'NONE', #56, 1.100000000000000089 ) ;
#82 = CC_DESIGN_DATE_AND_TIME_ASSIGNMENT ( #33, #98, ( #207 ) ) ;
#83 = DIRECTION ( 'NONE',  ( 3.491481338843133355E-15, -1.224646799147353207E-16, 1.000000000000000000 ) ) ;
#84 = DIRECTION ( 'NONE',  ( 3.491481338843133355E-15, -0.0000000000000000000, 1.000000000000000000 ) ) ;
#85 = APPROVAL_PERSON_ORGANIZATION ( #128, #122, #97 ) ;
#86 = DIRECTION ( 'NONE',  ( 1.000000000000000000, 0.0000000000000000000, -3.491481338843133750E-15 ) ) ;
#87 = AXIS2_PLACEMENT_3D ( 'NONE', #183, #147, #212 ) ;
#88 = CARTESIAN_POINT ( 'NONE',  ( 7.681258945454887071E-15, 0.0000000000000000000, 2.199999999999997957 ) ) ;
#89 = TOROIDAL_SURFACE ( 'NONE', #218, 9.099999999999999645, 8.000000000000000000 ) ;
#90 = FACE_OUTER_BOUND ( 'NONE', #204, .T. ) ;
#91 = DIRECTION ( 'NONE',  ( 0.0000000000000000000, 1.000000000000000000, 0.0000000000000000000 ) ) ;
#92 = ORIENTED_EDGE ( 'NONE', *, *, #112, .T. ) ;
#93 = EDGE_LOOP ( 'NONE', ( #126 ) ) ;
#94 = PLANE ( 'NONE',  #116 ) ;
#95 = PERSON_AND_ORGANIZATION ( #181, #70 ) ;
#96 = ORIENTED_EDGE ( 'NONE', *, *, #144, .F. ) ;
#97 = APPROVAL_ROLE ( '' ) ;
#98 = DATE_TIME_ROLE ( 'classification_date' ) ;
#99 = EDGE_LOOP ( 'NONE', ( #14 ) ) ;
#100 = CARTESIAN_POINT ( 'NONE',  ( -3.206816838010677856E-31, 1.124799933034399755E-32, -9.184688465421452921E-17 ) ) ;
#101 = APPROVAL_DATE_TIME ( #80, #24 ) ;
#102 = FACE_OUTER_BOUND ( 'NONE', #193, .T. ) ;
#103 = DIRECTION ( 'NONE',  ( 3.491481338843133355E-15, -1.224646799147353207E-16, 1.000000000000000000 ) ) ;
#104 = PLANE ( 'NONE',  #20 ) ;
#105 = ADVANCED_FACE ( 'NONE', ( #90, #202 ), #23, .T. ) ;
#106 = AXIS2_PLACEMENT_3D ( 'NONE', #175, #103, #1 ) ;
#107 = PLANE ( 'NONE',  #120 ) ;
#108 = CC_DESIGN_PERSON_AND_ORGANIZATION_ASSIGNMENT ( #114, #111, ( #155 ) ) ;
#109 =( NAMED_UNIT ( * ) SI_UNIT ( $, .STERADIAN. ) SOLID_ANGLE_UNIT ( ) );
#110 = ORIENTED_EDGE ( 'NONE', *, *, #184, .T. ) ;
#111 = PERSON_AND_ORGANIZATION_ROLE ( 'design_supplier' ) ;
#112 = EDGE_CURVE ( 'NONE', #45, #45, #34, .T. ) ;
#113 = DIRECTION ( 'NONE',  ( 1.000000000000000000, 0.0000000000000000000, -3.491481338843132961E-15 ) ) ;
#114 = PERSON_AND_ORGANIZATION ( #181, #70 ) ;
#115 = APPROVAL_ROLE ( '' ) ;
#116 = AXIS2_PLACEMENT_3D ( 'NONE', #100, #83, #173 ) ;
#117 = CARTESIAN_POINT ( 'NONE',  ( 1.728283262727351074E-13, -6.062001655779398511E-15, 49.50000000000000000 ) ) ;
#118 = VERTEX_POINT ( 'NONE', #199 ) ;
#119 = VERTEX_POINT ( 'NONE', #148 ) ;
#120 = AXIS2_PLACEMENT_3D ( 'NONE', #61, #121, #201 ) ;
#121 = DIRECTION ( 'NONE',  ( 3.491481338843133355E-15, -1.224646799147353207E-16, 1.000000000000000000 ) ) ;
#122 = APPROVAL ( #189, 'UNSPECIFIED' ) ;
#123 = APPLICATION_CONTEXT ( 'configuration controlled 3d designs of mechanical parts and assemblies' ) ;
#124 = PRODUCT_DEFINITION_SHAPE ( 'NONE', 'NONE',  #4 ) ;
#125 = COORDINATED_UNIVERSAL_TIME_OFFSET ( 1, 0, .AHEAD. ) ;
#126 = ORIENTED_EDGE ( 'NONE', *, *, #144, .T. ) ;
#127 = CC_DESIGN_PERSON_AND_ORGANIZATION_ASSIGNMENT ( #174, #78, ( #207 ) ) ;
#128 = PERSON_AND_ORGANIZATION ( #181, #70 ) ;
#129 = DIRECTION ( 'NONE',  ( 3.491481338843133355E-15, -0.0000000000000000000, 1.000000000000000000 ) ) ;
#130 = PERSON_AND_ORGANIZATION_ROLE ( 'design_owner' ) ;
#131 = CALENDAR_DATE ( 2021, 10, 11 ) ;
#132 = EDGE_LOOP ( 'NONE', ( #10 ) ) ;
#133 = DIRECTION ( 'NONE',  ( -1.000000000000000000, 0.0000000000000000000, 3.469446951953615372E-15 ) ) ;
#134 =( GEOMETRIC_REPRESENTATION_CONTEXT ( 3 ) GLOBAL_UNCERTAINTY_ASSIGNED_CONTEXT ( ( #209 ) ) GLOBAL_UNIT_ASSIGNED_CONTEXT ( ( #73, #13, #109 ) ) REPRESENTATION_CONTEXT ( 'NONE', 'WORKASPACE' ) );
#135 = CC_DESIGN_APPROVAL ( #24, ( #4 ) ) ;
#136 = FACE_OUTER_BOUND ( 'NONE', #79, .T. ) ;
#137 = CARTESIAN_POINT ( 'NONE',  ( 0.0000000000000000000, 0.0000000000000000000, 0.0000000000000000000 ) ) ;
#138 = DIRECTION ( 'NONE',  ( 3.491481338843133355E-15, -0.0000000000000000000, 1.000000000000000000 ) ) ;
#139 = CARTESIAN_POINT ( 'NONE',  ( 7.681258945454887071E-15, 0.0000000000000000000, 2.199999999999997957 ) ) ;
#140 = CARTESIAN_POINT ( 'NONE',  ( 1.100000000000007860, 0.0000000000000000000, 2.199999999999993960 ) ) ;
#141 = MANIFOLD_SOLID_BREP ( 'Corps-Déplacer/Copier1[2]', #3 ) ;
#142 = CC_DESIGN_APPROVAL ( #122, ( #207 ) ) ;
#143 = MANIFOLD_SOLID_BREP ( 'Corps-Déplacer/Copier1[1]', #198 ) ;
#144 = EDGE_CURVE ( 'NONE', #118, #118, #22, .T. ) ;
#145 = AXIS2_PLACEMENT_3D ( 'NONE', #88, #5, #75 ) ;
#146 = SHAPE_DEFINITION_REPRESENTATION ( #124, #49 ) ;
#147 = DIRECTION ( 'NONE',  ( -3.491481338843133355E-15, 1.224646799147353207E-16, -1.000000000000000000 ) ) ;
#148 = CARTESIAN_POINT ( 'NONE',  ( 1.100000000000007860, 0.0000000000000000000, 2.199999999999993960 ) ) ;
#149 = ORIENTED_EDGE ( 'NONE', *, *, #177, .F. ) ;
#150 = CALENDAR_DATE ( 2021, 10, 11 ) ;
#151 = FACE_OUTER_BOUND ( 'NONE', #186, .T. ) ;
#152 = FACE_OUTER_BOUND ( 'NONE', #93, .T. ) ;
#153 = PERSON_AND_ORGANIZATION ( #181, #70 ) ;
#154 = CIRCLE ( 'NONE', #58, 3.000000000000001776 ) ;
#155 = PRODUCT_DEFINITION_FORMATION_WITH_SPECIFIED_SOURCE ( 'ANY', '', #8, .NOT_KNOWN. ) ;
#156 = PERSON_AND_ORGANIZATION_ROLE ( 'creator' ) ;
#157 = DIRECTION ( 'NONE',  ( 4.275831445896958607E-31, 1.000000000000000000, 1.224646799147353207E-16 ) ) ;
#158 = VERTEX_POINT ( 'NONE', #59 ) ;
#159 = APPROVAL_PERSON_ORGANIZATION ( #67, #162, #64 ) ;
#160 = CYLINDRICAL_SURFACE ( 'NONE', #47, 2.999999999999999112 ) ;
#161 = CARTESIAN_POINT ( 'NONE',  ( 1.745740669421566678E-13, 2.499999999999995559, 50.00000000000000000 ) ) ;
#162 = APPROVAL ( #216, 'UNSPECIFIED' ) ;
#163 = CARTESIAN_POINT ( 'NONE',  ( 2.575283717091523594E-14, 0.0000000000000000000, 7.375905717843010301 ) ) ;
#164 = APPLICATION_CONTEXT ( 'configuration controlled 3d designs of mechanical parts and assemblies' ) ;
#165 = AXIS2_PLACEMENT_3D ( 'NONE', #188, #194, #214 ) ;
#166 = CALENDAR_DATE ( 2021, 10, 11 ) ;
#167 = LOCAL_TIME ( 8, 14, 37.00000000000000000, #62 ) ;
#168 = PERSON_AND_ORGANIZATION_ROLE ( 'creator' ) ;
#169 = ORIENTED_EDGE ( 'NONE', *, *, #36, .F. ) ;
#170 = COORDINATED_UNIVERSAL_TIME_OFFSET ( 1, 0, .AHEAD. ) ;
#171 = ORIENTED_EDGE ( 'NONE', *, *, #177, .T. ) ;
#172 = ADVANCED_FACE ( 'NONE', ( #32 ), #94, .F. ) ;
#173 = DIRECTION ( 'NONE',  ( -4.275831445896958607E-31, -1.000000000000000000, -1.224646799147353207E-16 ) ) ;
#174 = PERSON_AND_ORGANIZATION ( #181, #70 ) ;
#175 = CARTESIAN_POINT ( 'NONE',  ( 7.681258945454893382E-15, -3.180326372624151928E-16, 2.199999999999999734 ) ) ;
#176 = LOCAL_TIME ( 8, 14, 37.00000000000000000, #26 ) ;
#177 = EDGE_CURVE ( 'NONE', #41, #41, #154, .T. ) ;
#178 = CARTESIAN_POINT ( 'NONE',  ( 0.0000000000000000000, 0.0000000000000000000, 0.0000000000000000000 ) ) ;
#179 = CARTESIAN_POINT ( 'NONE',  ( 1.728283262727351074E-13, 2.999999999999995559, 49.50000000000000000 ) ) ;
#180 = DIRECTION ( 'NONE',  ( 4.275831445896958607E-31, 1.000000000000000000, 1.224646799147353207E-16 ) ) ;
#181 = PERSON ( 'UNSPECIFIED', 'UNSPECIFIED', 'UNSPECIFIED', ('UNSPECIFIED'), ('UNSPECIFIED'), ('UNSPECIFIED') ) ;
#182 = CC_DESIGN_DATE_AND_TIME_ASSIGNMENT ( #55, #205, ( #4 ) ) ;
#183 = CARTESIAN_POINT ( 'NONE',  ( 1.745740669421566678E-13, -6.123233995736766085E-15, 50.00000000000000000 ) ) ;
#184 = EDGE_CURVE ( 'NONE', #158, #158, #81, .T. ) ;
#185 = COORDINATED_UNIVERSAL_TIME_OFFSET ( 1, 0, .AHEAD. ) ;
#186 = EDGE_LOOP ( 'NONE', ( #25 ) ) ;
#187 = APPROVAL_PERSON_ORGANIZATION ( #153, #24, #115 ) ;
#188 = CARTESIAN_POINT ( 'NONE',  ( 0.0000000000000000000, 0.0000000000000000000, 0.0000000000000000000 ) ) ;
#189 = APPROVAL_STATUS ( 'not_yet_approved' ) ;
#190 = FACE_OUTER_BOUND ( 'NONE', #53, .T. ) ;
#191 = CALENDAR_DATE ( 2021, 10, 11 ) ;
#192 = CC_DESIGN_PERSON_AND_ORGANIZATION_ASSIGNMENT ( #66, #130, ( #8 ) ) ;
#193 = EDGE_LOOP ( 'NONE', ( #96 ) ) ;
#194 = DIRECTION ( 'NONE',  ( 0.0000000000000000000, 0.0000000000000000000, 1.000000000000000000 ) ) ;
#195 = AXIS2_PLACEMENT_3D ( 'NONE', #163, #7, #133 ) ;
#196 = DIRECTION ( 'NONE',  ( 1.000000000000000000, 0.0000000000000000000, -3.491481338843133750E-15 ) ) ;
#197 = CC_DESIGN_PERSON_AND_ORGANIZATION_ASSIGNMENT ( #54, #156, ( #155 ) ) ;
#198 = CLOSED_SHELL ( 'NONE', ( #39, #105, #48, #2, #211 ) ) ;
#199 = CARTESIAN_POINT ( 'NONE',  ( -2.999999999999973799, 0.0000000000000000000, 7.375905717843020959 ) ) ;
#200 = AXIS2_PLACEMENT_3D ( 'NONE', #139, #84, #221 ) ;
#201 = DIRECTION ( 'NONE',  ( -4.275831445896958607E-31, -1.000000000000000000, -1.224646799147353207E-16 ) ) ;
#202 = FACE_BOUND ( 'NONE', #63, .T. ) ;
#203 = APPLICATION_PROTOCOL_DEFINITION ( 'international standard', 'config_control_design', 1994, #123 ) ;
#204 = EDGE_LOOP ( 'NONE', ( #149 ) ) ;
#205 = DATE_TIME_ROLE ( 'creation_date' ) ;
#206 = APPROVAL_DATE_TIME ( #76, #122 ) ;
#207 = SECURITY_CLASSIFICATION ( '', '', #9 ) ;
#208 = DIRECTION ( 'NONE',  ( 0.0000000000000000000, 1.000000000000000000, 0.0000000000000000000 ) ) ;
#209 = UNCERTAINTY_MEASURE_WITH_UNIT (LENGTH_MEASURE( 1.000000000000000082E-05 ), #73, 'distance_accuracy_value', 'NONE');
#210 = CIRCLE ( 'NONE', #200, 1.100000000000000311 ) ;
#211 = ADVANCED_FACE ( 'NONE', ( #37 ), #19, .F. ) ;
#212 = DIRECTION ( 'NONE',  ( 0.0000000000000000000, 1.000000000000000000, 0.0000000000000000000 ) ) ;
#213 = CC_DESIGN_PERSON_AND_ORGANIZATION_ASSIGNMENT ( #95, #168, ( #4 ) ) ;
#214 = DIRECTION ( 'NONE',  ( 1.000000000000000000, 0.0000000000000000000, 0.0000000000000000000 ) ) ;
#215 = EDGE_LOOP ( 'NONE', ( #16 ) ) ;
#216 = APPROVAL_STATUS ( 'not_yet_approved' ) ;
#217 = FACE_OUTER_BOUND ( 'NONE', #69, .T. ) ;
#218 = AXIS2_PLACEMENT_3D ( 'NONE', #65, #129, #113 ) ;
#219 = LOCAL_TIME ( 8, 14, 37.00000000000000000, #185 ) ;
#220 = FACE_OUTER_BOUND ( 'NONE', #27, .T. ) ;
#221 = DIRECTION ( 'NONE',  ( 1.000000000000000000, 0.0000000000000000000, -3.548298019043467945E-15 ) ) ;
#222 = DIRECTION ( 'NONE',  ( -3.491481338843133355E-15, 1.224646799147353207E-16, -1.000000000000000000 ) ) ;
#223 = CIRCLE ( 'NONE', #145, 1.100000000000000311 ) ;
ENDSEC;
END-ISO-10303-21;
