ISO-10303-21;
HEADER;
FILE_DESCRIPTION (( 'STEP AP203' ),
    '1' );
FILE_NAME ('64387.step',
    '2021-11-10T07:14:36',
    ( '' ),
    ( '' ),
    'SwSTEP 2.0',
    'SolidWorks 2019',
    '' );
FILE_SCHEMA (( 'CONFIG_CONTROL_DESIGN' ));
ENDSEC;

DATA;
#1 = ORIENTED_EDGE ( 'NONE', *, *, #32, .F. ) ;
#2 = FACE_OUTER_BOUND ( 'NONE', #139, .T. ) ;
#3 = DIRECTION ( 'NONE',  ( 3.491481338843133355E-15, -0.0000000000000000000, 1.000000000000000000 ) ) ;
#4 = DIRECTION ( 'NONE',  ( 1.000000000000000000, 0.0000000000000000000, 0.0000000000000000000 ) ) ;
#5 = DIRECTION ( 'NONE',  ( 1.000000000000000000, 0.0000000000000000000, -3.491481338843134144E-15 ) ) ;
#6 = LOCAL_TIME ( 8, 14, 36.00000000000000000, #14 ) ;
#7 = CARTESIAN_POINT ( 'NONE',  ( 7.332110811570575313E-15, 0.0000000000000000000, 2.099999999999998757 ) ) ;
#8 = CC_DESIGN_PERSON_AND_ORGANIZATION_ASSIGNMENT ( #30, #152, ( #78 ) ) ;
#9 = VERTEX_POINT ( 'NONE', #46 ) ;
#10 = EDGE_CURVE ( 'NONE', #47, #47, #64, .T. ) ;
#11 = CALENDAR_DATE ( 2021, 10, 11 ) ;
#12 = AXIS2_PLACEMENT_3D ( 'NONE', #103, #17, #174 ) ;
#13 = DATE_AND_TIME ( #215, #146 ) ;
#14 = COORDINATED_UNIVERSAL_TIME_OFFSET ( 1, 0, .AHEAD. ) ;
#15 = PERSON_AND_ORGANIZATION ( #81, #200 ) ;
#16 = ORIENTED_EDGE ( 'NONE', *, *, #183, .F. ) ;
#17 = DIRECTION ( 'NONE',  ( 3.491481338843133355E-15, -0.0000000000000000000, 1.000000000000000000 ) ) ;
#18 = CC_DESIGN_PERSON_AND_ORGANIZATION_ASSIGNMENT ( #28, #217, ( #78 ) ) ;
#19 = CARTESIAN_POINT ( 'NONE',  ( 2.560743934588624140E-14, 0.0000000000000000000, 7.334262125648652209 ) ) ;
#20 = CIRCLE ( 'NONE', #27, 2.500000000000001776 ) ;
#21 = ORIENTED_EDGE ( 'NONE', *, *, #32, .T. ) ;
#22 = DIRECTION ( 'NONE',  ( -4.275831445896958607E-31, -1.000000000000000000, -1.224646799147353207E-16 ) ) ;
#23 = CARTESIAN_POINT ( 'NONE',  ( 1.050000000000008038, 0.0000000000000000000, 2.099999999999995204 ) ) ;
#24 =( LENGTH_UNIT ( ) NAMED_UNIT ( * ) SI_UNIT ( .MILLI., .METRE. ) );
#25 = FACE_OUTER_BOUND ( 'NONE', #204, .T. ) ;
#26 = VERTEX_POINT ( 'NONE', #96 ) ;
#27 = AXIS2_PLACEMENT_3D ( 'NONE', #144, #197, #99 ) ;
#28 = PERSON_AND_ORGANIZATION ( #81, #200 ) ;
#29 = ADVANCED_FACE ( 'NONE', ( #104 ), #73, .F. ) ;
#30 = PERSON_AND_ORGANIZATION ( #81, #200 ) ;
#31 = COORDINATED_UNIVERSAL_TIME_OFFSET ( 1, 0, .AHEAD. ) ;
#32 = EDGE_CURVE ( 'NONE', #42, #42, #185, .T. ) ;
#33 = CARTESIAN_POINT ( 'NONE',  ( 1.745740669421566678E-13, -6.123233995736766085E-15, 50.00000000000000000 ) ) ;
#34 = EDGE_LOOP ( 'NONE', ( #90 ) ) ;
#35 = ADVANCED_FACE ( 'NONE', ( #94, #119 ), #169, .T. ) ;
#36 = PLANE ( 'NONE',  #43 ) ;
#37 = PRODUCT ( '64387', '64387', '', ( #209 ) ) ;
#38 = CARTESIAN_POINT ( 'NONE',  ( 1.745740669421566678E-13, 1.874699728327314346E-32, 50.00000000000000000 ) ) ;
#39 = CC_DESIGN_APPROVAL ( #136, ( #177 ) ) ;
#40 = ORIENTED_EDGE ( 'NONE', *, *, #171, .F. ) ;
#41 = APPLICATION_PROTOCOL_DEFINITION ( 'international standard', 'config_control_design', 1994, #110 ) ;
#42 = VERTEX_POINT ( 'NONE', #23 ) ;
#43 = AXIS2_PLACEMENT_3D ( 'NONE', #77, #206, #123 ) ;
#44 = CARTESIAN_POINT ( 'NONE',  ( 1.728283262727351074E-13, 2.999999999999995559, 49.50000000000000000 ) ) ;
#45 = CC_DESIGN_PERSON_AND_ORGANIZATION_ASSIGNMENT ( #164, #219, ( #177 ) ) ;
#46 = CARTESIAN_POINT ( 'NONE',  ( -2.999999999999973799, 0.0000000000000000000, 7.334262125648662867 ) ) ;
#47 = VERTEX_POINT ( 'NONE', #44 ) ;
#48 = AXIS2_PLACEMENT_3D ( 'NONE', #145, #195, #84 ) ;
#49 = MANIFOLD_SOLID_BREP ( 'Corps-Déplacer/Copier1[2]', #95 ) ;
#50 = CC_DESIGN_PERSON_AND_ORGANIZATION_ASSIGNMENT ( #163, #194, ( #37 ) ) ;
#51 = EDGE_CURVE ( 'NONE', #9, #9, #141, .T. ) ;
#52 = DIRECTION ( 'NONE',  ( -1.000000000000000000, 0.0000000000000000000, 3.469446951953615372E-15 ) ) ;
#53 = APPROVAL_PERSON_ORGANIZATION ( #160, #114, #143 ) ;
#54 = FACE_OUTER_BOUND ( 'NONE', #170, .T. ) ;
#55 = PRODUCT_DEFINITION ( 'UNKNOWN', '', #78, #93 ) ;
#56 = EDGE_LOOP ( 'NONE', ( #40 ) ) ;
#57 = CC_DESIGN_DATE_AND_TIME_ASSIGNMENT ( #148, #130, ( #55 ) ) ;
#58 = DIRECTION ( 'NONE',  ( 0.0000000000000000000, 1.000000000000000000, 0.0000000000000000000 ) ) ;
#59 = DIRECTION ( 'NONE',  ( -3.491481338843133355E-15, 0.0000000000000000000, -1.000000000000000000 ) ) ;
#60 = CC_DESIGN_SECURITY_CLASSIFICATION ( #177, ( #78 ) ) ;
#61 = DIRECTION ( 'NONE',  ( 3.491481338843133355E-15, -1.224646799147353207E-16, 1.000000000000000000 ) ) ;
#62 = APPLICATION_CONTEXT ( 'configuration controlled 3d designs of mechanical parts and assemblies' ) ;
#63 = DIRECTION ( 'NONE',  ( 3.491481338843133355E-15, -0.0000000000000000000, 1.000000000000000000 ) ) ;
#64 = CIRCLE ( 'NONE', #218, 3.000000000000001776 ) ;
#65 = DIRECTION ( 'NONE',  ( -4.275831445896958607E-31, -1.000000000000000000, -1.224646799147353207E-16 ) ) ;
#66 =( NAMED_UNIT ( * ) SI_UNIT ( $, .STERADIAN. ) SOLID_ANGLE_UNIT ( ) );
#67 = COORDINATED_UNIVERSAL_TIME_OFFSET ( 1, 0, .AHEAD. ) ;
#68 = ADVANCED_FACE ( 'NONE', ( #157 ), #36, .F. ) ;
#69 = CC_DESIGN_APPROVAL ( #168, ( #78 ) ) ;
#70 = PERSON_AND_ORGANIZATION_ROLE ( 'creator' ) ;
#71 = APPROVAL_ROLE ( '' ) ;
#72 = APPROVAL_STATUS ( 'not_yet_approved' ) ;
#73 = PLANE ( 'NONE',  #222 ) ;
#74 = ADVANCED_FACE ( 'NONE', ( #193 ), #175, .F. ) ;
#75 = CARTESIAN_POINT ( 'NONE',  ( 1.728283262727351074E-13, -6.062001655779398511E-15, 49.50000000000000000 ) ) ;
#76 = EDGE_LOOP ( 'NONE', ( #118 ) ) ;
#77 = CARTESIAN_POINT ( 'NONE',  ( 7.332110811570581624E-15, -3.035766082959417839E-16, 2.100000000000000089 ) ) ;
#78 = PRODUCT_DEFINITION_FORMATION_WITH_SPECIFIED_SOURCE ( 'ANY', '', #37, .NOT_KNOWN. ) ;
#79 = ORIENTED_EDGE ( 'NONE', *, *, #10, .F. ) ;
#80 = APPROVAL_STATUS ( 'not_yet_approved' ) ;
#81 = PERSON ( 'UNSPECIFIED', 'UNSPECIFIED', 'UNSPECIFIED', ('UNSPECIFIED'), ('UNSPECIFIED'), ('UNSPECIFIED') ) ;
#82 = DIRECTION ( 'NONE',  ( 1.000000000000000000, 0.0000000000000000000, -3.491481338843134144E-15 ) ) ;
#83 = AXIS2_PLACEMENT_3D ( 'NONE', #7, #63, #213 ) ;
#84 = DIRECTION ( 'NONE',  ( 1.000000000000000000, 0.0000000000000000000, -3.491481338843132961E-15 ) ) ;
#85 = ADVANCED_FACE ( 'NONE', ( #2, #187 ), #212, .T. ) ;
#86 = APPROVAL_DATE_TIME ( #184, #168 ) ;
#87 =( GEOMETRIC_REPRESENTATION_CONTEXT ( 3 ) GLOBAL_UNCERTAINTY_ASSIGNED_CONTEXT ( ( #205 ) ) GLOBAL_UNIT_ASSIGNED_CONTEXT ( ( #24, #147, #66 ) ) REPRESENTATION_CONTEXT ( 'NONE', 'WORKASPACE' ) );
#88 = DIRECTION ( 'NONE',  ( 0.0000000000000000000, 1.000000000000000000, 0.0000000000000000000 ) ) ;
#89 = ADVANCED_FACE ( 'NONE', ( #154, #137 ), #203, .F. ) ;
#90 = ORIENTED_EDGE ( 'NONE', *, *, #183, .T. ) ;
#91 = EDGE_LOOP ( 'NONE', ( #21 ) ) ;
#92 = DIRECTION ( 'NONE',  ( 4.275831445896958607E-31, 1.000000000000000000, 1.224646799147353207E-16 ) ) ;
#93 = DESIGN_CONTEXT ( 'detailed design', #110, 'design' ) ;
#94 = FACE_OUTER_BOUND ( 'NONE', #190, .T. ) ;
#95 = CLOSED_SHELL ( 'NONE', ( #120, #153, #74 ) ) ;
#96 = CARTESIAN_POINT ( 'NONE',  ( 1.745740669421566678E-13, 2.499999999999995559, 50.00000000000000000 ) ) ;
#97 = CARTESIAN_POINT ( 'NONE',  ( 0.0000000000000000000, 0.0000000000000000000, 0.0000000000000000000 ) ) ;
#98 = CARTESIAN_POINT ( 'NONE',  ( 1.050000000000008038, 0.0000000000000000000, 2.099999999999995204 ) ) ;
#99 = DIRECTION ( 'NONE',  ( 0.0000000000000000000, 1.000000000000000000, 0.0000000000000000000 ) ) ;
#100 = DATE_AND_TIME ( #165, #196 ) ;
#101 = DATE_AND_TIME ( #11, #6 ) ;
#102 = LOCAL_TIME ( 8, 14, 36.00000000000000000, #31 ) ;
#103 = CARTESIAN_POINT ( 'NONE',  ( 7.332110811570575313E-15, 0.0000000000000000000, 2.099999999999998757 ) ) ;
#104 = FACE_OUTER_BOUND ( 'NONE', #221, .T. ) ;
#105 = CARTESIAN_POINT ( 'NONE',  ( -3.206816838010677856E-31, 1.124799933034399755E-32, -9.184688465421452921E-17 ) ) ;
#106 = CIRCLE ( 'NONE', #191, 1.050000000000000044 ) ;
#107 = DIRECTION ( 'NONE',  ( 4.275831445896958607E-31, 1.000000000000000000, 1.224646799147353207E-16 ) ) ;
#108 = ORIENTED_EDGE ( 'NONE', *, *, #10, .T. ) ;
#109 = VERTEX_POINT ( 'NONE', #127 ) ;
#110 = APPLICATION_CONTEXT ( 'configuration controlled 3d designs of mechanical parts and assemblies' ) ;
#111 = AXIS2_PLACEMENT_3D ( 'NONE', #178, #161, #4 ) ;
#112 = CALENDAR_DATE ( 2021, 10, 11 ) ;
#113 = APPROVAL_STATUS ( 'not_yet_approved' ) ;
#114 = APPROVAL ( #80, 'UNSPECIFIED' ) ;
#115 = AXIS2_PLACEMENT_3D ( 'NONE', #158, #140, #92 ) ;
#116 = CALENDAR_DATE ( 2021, 10, 11 ) ;
#117 = DIRECTION ( 'NONE',  ( -3.491481338843133355E-15, 1.224646799147353207E-16, -1.000000000000000000 ) ) ;
#118 = ORIENTED_EDGE ( 'NONE', *, *, #171, .T. ) ;
#119 = FACE_OUTER_BOUND ( 'NONE', #156, .T. ) ;
#120 = ADVANCED_FACE ( 'NONE', ( #54 ), #176, .T. ) ;
#121 = EDGE_LOOP ( 'NONE', ( #201 ) ) ;
#122 = AXIS2_PLACEMENT_3D ( 'NONE', #125, #61, #65 ) ;
#123 = DIRECTION ( 'NONE',  ( -4.275831445896958607E-31, -1.000000000000000000, -1.224646799147353207E-16 ) ) ;
#124 = MANIFOLD_SOLID_BREP ( 'Corps-Déplacer/Copier1[1]', #159 ) ;
#125 = CARTESIAN_POINT ( 'NONE',  ( 7.332110811570581624E-15, -3.035766082959417839E-16, 2.100000000000000089 ) ) ;
#126 = AXIS2_PLACEMENT_3D ( 'NONE', #105, #172, #22 ) ;
#127 = CARTESIAN_POINT ( 'NONE',  ( 1.050000000000000044, 0.0000000000000000000, -3.666055405785290812E-15 ) ) ;
#128 = FACE_OUTER_BOUND ( 'NONE', #76, .T. ) ;
#129 = APPROVAL_DATE_TIME ( #100, #136 ) ;
#130 = DATE_TIME_ROLE ( 'creation_date' ) ;
#131 = SHAPE_DEFINITION_REPRESENTATION ( #202, #133 ) ;
#132 = EDGE_CURVE ( 'NONE', #142, #142, #173, .T. ) ;
#133 = ADVANCED_BREP_SHAPE_REPRESENTATION ( '64387', ( #124, #49, #111 ), #87 ) ;
#134 = COORDINATED_UNIVERSAL_TIME_OFFSET ( 1, 0, .AHEAD. ) ;
#135 = CC_DESIGN_APPROVAL ( #114, ( #55 ) ) ;
#136 = APPROVAL ( #72, 'UNSPECIFIED' ) ;
#137 = FACE_OUTER_BOUND ( 'NONE', #121, .T. ) ;
#138 = ORIENTED_EDGE ( 'NONE', *, *, #132, .T. ) ;
#139 = EDGE_LOOP ( 'NONE', ( #79 ) ) ;
#140 = DIRECTION ( 'NONE',  ( -3.491481338843133355E-15, 1.224646799147353207E-16, -1.000000000000000000 ) ) ;
#141 = CIRCLE ( 'NONE', #162, 2.999999999999999112 ) ;
#142 = VERTEX_POINT ( 'NONE', #98 ) ;
#143 = APPROVAL_ROLE ( '' ) ;
#144 = CARTESIAN_POINT ( 'NONE',  ( 1.745740669421566678E-13, -6.123233995736766085E-15, 50.00000000000000000 ) ) ;
#145 = CARTESIAN_POINT ( 'NONE',  ( 7.332110811570578468E-15, 0.0000000000000000000, 2.099999999999999645 ) ) ;
#146 = LOCAL_TIME ( 8, 14, 36.00000000000000000, #167 ) ;
#147 =( NAMED_UNIT ( * ) PLANE_ANGLE_UNIT ( ) SI_UNIT ( $, .RADIAN. ) );
#148 = DATE_AND_TIME ( #112, #207 ) ;
#149 = CC_DESIGN_PERSON_AND_ORGANIZATION_ASSIGNMENT ( #150, #70, ( #55 ) ) ;
#150 = PERSON_AND_ORGANIZATION ( #81, #200 ) ;
#151 = DATE_TIME_ROLE ( 'classification_date' ) ;
#152 = PERSON_AND_ORGANIZATION_ROLE ( 'design_supplier' ) ;
#153 = ADVANCED_FACE ( 'NONE', ( #128, #25 ), #208, .T. ) ;
#154 = FACE_OUTER_BOUND ( 'NONE', #91, .T. ) ;
#155 = DIRECTION ( 'NONE',  ( -3.491481338843133355E-15, 1.224646799147353207E-16, -1.000000000000000000 ) ) ;
#156 = EDGE_LOOP ( 'NONE', ( #223 ) ) ;
#157 = FACE_OUTER_BOUND ( 'NONE', #188, .T. ) ;
#158 = CARTESIAN_POINT ( 'NONE',  ( 0.0000000000000000000, 0.0000000000000000000, 0.0000000000000000000 ) ) ;
#159 = CLOSED_SHELL ( 'NONE', ( #35, #85, #29, #89, #68 ) ) ;
#160 = PERSON_AND_ORGANIZATION ( #81, #200 ) ;
#161 = DIRECTION ( 'NONE',  ( 0.0000000000000000000, 0.0000000000000000000, 1.000000000000000000 ) ) ;
#162 = AXIS2_PLACEMENT_3D ( 'NONE', #19, #59, #52 ) ;
#163 = PERSON_AND_ORGANIZATION ( #81, #200 ) ;
#164 = PERSON_AND_ORGANIZATION ( #81, #200 ) ;
#165 = CALENDAR_DATE ( 2021, 10, 11 ) ;
#166 = APPROVAL_DATE_TIME ( #101, #114 ) ;
#167 = COORDINATED_UNIVERSAL_TIME_OFFSET ( 1, 0, .AHEAD. ) ;
#168 = APPROVAL ( #113, 'UNSPECIFIED' ) ;
#169 = CYLINDRICAL_SURFACE ( 'NONE', #115, 2.999999999999999112 ) ;
#170 = EDGE_LOOP ( 'NONE', ( #138 ) ) ;
#171 = EDGE_CURVE ( 'NONE', #109, #109, #106, .T. ) ;
#172 = DIRECTION ( 'NONE',  ( 3.491481338843133355E-15, -1.224646799147353207E-16, 1.000000000000000000 ) ) ;
#173 = CIRCLE ( 'NONE', #83, 1.050000000000000488 ) ;
#174 = DIRECTION ( 'NONE',  ( 1.000000000000000000, 0.0000000000000000000, -3.304235192336773934E-15 ) ) ;
#175 = PLANE ( 'NONE',  #126 ) ;
#176 = PLANE ( 'NONE',  #122 ) ;
#177 = SECURITY_CLASSIFICATION ( '', '', #186 ) ;
#178 = CARTESIAN_POINT ( 'NONE',  ( 0.0000000000000000000, 0.0000000000000000000, 0.0000000000000000000 ) ) ;
#179 = DIRECTION ( 'NONE',  ( 3.491481338843133355E-15, -0.0000000000000000000, 1.000000000000000000 ) ) ;
#180 = APPLICATION_PROTOCOL_DEFINITION ( 'international standard', 'config_control_design', 1994, #62 ) ;
#181 = AXIS2_PLACEMENT_3D ( 'NONE', #33, #220, #88 ) ;
#182 = PERSON_AND_ORGANIZATION ( #81, #200 ) ;
#183 = EDGE_CURVE ( 'NONE', #26, #26, #20, .T. ) ;
#184 = DATE_AND_TIME ( #116, #102 ) ;
#185 = CIRCLE ( 'NONE', #12, 1.050000000000000488 ) ;
#186 = SECURITY_CLASSIFICATION_LEVEL ( 'unclassified' ) ;
#187 = FACE_BOUND ( 'NONE', #34, .T. ) ;
#188 = EDGE_LOOP ( 'NONE', ( #1 ) ) ;
#189 = ORIENTED_EDGE ( 'NONE', *, *, #132, .F. ) ;
#190 = EDGE_LOOP ( 'NONE', ( #108 ) ) ;
#191 = AXIS2_PLACEMENT_3D ( 'NONE', #97, #3, #5 ) ;
#192 = APPROVAL_PERSON_ORGANIZATION ( #15, #136, #71 ) ;
#193 = FACE_OUTER_BOUND ( 'NONE', #56, .T. ) ;
#194 = PERSON_AND_ORGANIZATION_ROLE ( 'design_owner' ) ;
#195 = DIRECTION ( 'NONE',  ( 3.491481338843133355E-15, -0.0000000000000000000, 1.000000000000000000 ) ) ;
#196 = LOCAL_TIME ( 8, 14, 36.00000000000000000, #134 ) ;
#197 = DIRECTION ( 'NONE',  ( -3.491481338843133355E-15, 1.224646799147353207E-16, -1.000000000000000000 ) ) ;
#198 = APPROVAL_PERSON_ORGANIZATION ( #182, #168, #199 ) ;
#199 = APPROVAL_ROLE ( '' ) ;
#200 = ORGANIZATION ( 'UNSPECIFIED', 'UNSPECIFIED', '' ) ;
#201 = ORIENTED_EDGE ( 'NONE', *, *, #51, .T. ) ;
#202 = PRODUCT_DEFINITION_SHAPE ( 'NONE', 'NONE',  #55 ) ;
#203 = TOROIDAL_SURFACE ( 'NONE', #48, 9.050000000000002487, 8.000000000000000000 ) ;
#204 = EDGE_LOOP ( 'NONE', ( #189 ) ) ;
#205 = UNCERTAINTY_MEASURE_WITH_UNIT (LENGTH_MEASURE( 1.000000000000000082E-05 ), #24, 'distance_accuracy_value', 'NONE');
#206 = DIRECTION ( 'NONE',  ( 3.491481338843133355E-15, -1.224646799147353207E-16, 1.000000000000000000 ) ) ;
#207 = LOCAL_TIME ( 8, 14, 36.00000000000000000, #67 ) ;
#208 = CYLINDRICAL_SURFACE ( 'NONE', #214, 1.050000000000000266 ) ;
#209 = MECHANICAL_CONTEXT ( 'NONE', #62, 'mechanical' ) ;
#210 = CC_DESIGN_DATE_AND_TIME_ASSIGNMENT ( #13, #151, ( #177 ) ) ;
#211 = CARTESIAN_POINT ( 'NONE',  ( 0.0000000000000000000, 0.0000000000000000000, 0.0000000000000000000 ) ) ;
#212 = CONICAL_SURFACE ( 'NONE', #181, 2.500000000000001776, 0.7853981633974479459 ) ;
#213 = DIRECTION ( 'NONE',  ( 1.000000000000000000, 0.0000000000000000000, -3.304235192336773934E-15 ) ) ;
#214 = AXIS2_PLACEMENT_3D ( 'NONE', #211, #179, #82 ) ;
#215 = CALENDAR_DATE ( 2021, 10, 11 ) ;
#216 = PRODUCT_RELATED_PRODUCT_CATEGORY ( 'detail', '', ( #37 ) ) ;
#217 = PERSON_AND_ORGANIZATION_ROLE ( 'creator' ) ;
#218 = AXIS2_PLACEMENT_3D ( 'NONE', #75, #117, #58 ) ;
#219 = PERSON_AND_ORGANIZATION_ROLE ( 'classification_officer' ) ;
#220 = DIRECTION ( 'NONE',  ( -3.491481338843133355E-15, 1.224646799147353207E-16, -1.000000000000000000 ) ) ;
#221 = EDGE_LOOP ( 'NONE', ( #16 ) ) ;
#222 = AXIS2_PLACEMENT_3D ( 'NONE', #38, #155, #107 ) ;
#223 = ORIENTED_EDGE ( 'NONE', *, *, #51, .F. ) ;
ENDSEC;
END-ISO-10303-21;
