ISO-10303-21;
HEADER;
FILE_DESCRIPTION (( 'STEP AP203' ),
    '1' );
FILE_NAME ('64386.step',
    '2021-11-10T07:14:36',
    ( '' ),
    ( '' ),
    'SwSTEP 2.0',
    'SolidWorks 2019',
    '' );
FILE_SCHEMA (( 'CONFIG_CONTROL_DESIGN' ));
ENDSEC;

DATA;
#1 = APPROVAL_ROLE ( '' ) ;
#2 = DIRECTION ( 'NONE',  ( 3.491481338843133355E-15, -0.0000000000000000000, 1.000000000000000000 ) ) ;
#3 = DIRECTION ( 'NONE',  ( -3.491481338843133355E-15, 1.224646799147353207E-16, -1.000000000000000000 ) ) ;
#4 = DIRECTION ( 'NONE',  ( 1.000000000000000000, 0.0000000000000000000, -3.469446951953611033E-15 ) ) ;
#5 = AXIS2_PLACEMENT_3D ( 'NONE', #159, #2, #33 ) ;
#6 = ORIENTED_EDGE ( 'NONE', *, *, #175, .F. ) ;
#7 = PRODUCT ( '64386', '64386', '', ( #12 ) ) ;
#8 = DIRECTION ( 'NONE',  ( -3.491481338843133355E-15, 1.224646799147353207E-16, -1.000000000000000000 ) ) ;
#9 = APPROVAL_STATUS ( 'not_yet_approved' ) ;
#10 = DIRECTION ( 'NONE',  ( 1.000000000000000000, 0.0000000000000000000, -3.469446951953611033E-15 ) ) ;
#11 = CARTESIAN_POINT ( 'NONE',  ( 1.745740669421566678E-13, -6.123233995736766085E-15, 50.00000000000000000 ) ) ;
#12 = MECHANICAL_CONTEXT ( 'NONE', #184, 'mechanical' ) ;
#13 = PERSON_AND_ORGANIZATION ( #66, #109 ) ;
#14 = APPROVAL_ROLE ( '' ) ;
#15 = EDGE_LOOP ( 'NONE', ( #136 ) ) ;
#16 = AXIS2_PLACEMENT_3D ( 'NONE', #17, #140, #4 ) ;
#17 = CARTESIAN_POINT ( 'NONE',  ( 6.982962677686260400E-15, 0.0000000000000000000, 1.999999999999998224 ) ) ;
#18 = PRODUCT_DEFINITION ( 'UNKNOWN', '', #112, #76 ) ;
#19 = EDGE_LOOP ( 'NONE', ( #72 ) ) ;
#20 = EDGE_LOOP ( 'NONE', ( #117 ) ) ;
#21 = ORIENTED_EDGE ( 'NONE', *, *, #47, .T. ) ;
#22 = CC_DESIGN_DATE_AND_TIME_ASSIGNMENT ( #149, #222, ( #18 ) ) ;
#23 = CYLINDRICAL_SURFACE ( 'NONE', #173, 2.999999999999999112 ) ;
#24 = AXIS2_PLACEMENT_3D ( 'NONE', #106, #179, #92 ) ;
#25 = CARTESIAN_POINT ( 'NONE',  ( 0.0000000000000000000, 0.0000000000000000000, 0.0000000000000000000 ) ) ;
#26 = CALENDAR_DATE ( 2021, 10, 11 ) ;
#27 = APPROVAL_DATE_TIME ( #196, #148 ) ;
#28 = PERSON_AND_ORGANIZATION ( #66, #109 ) ;
#29 = CC_DESIGN_APPROVAL ( #82, ( #40 ) ) ;
#30 = PLANE ( 'NONE',  #35 ) ;
#31 = ORIENTED_EDGE ( 'NONE', *, *, #134, .F. ) ;
#32 = ADVANCED_FACE ( 'NONE', ( #194 ), #71, .F. ) ;
#33 = DIRECTION ( 'NONE',  ( 1.000000000000000000, 0.0000000000000000000, -3.491481338843133355E-15 ) ) ;
#34 = CARTESIAN_POINT ( 'NONE',  ( 1.745740669421566678E-13, -6.123233995736766085E-15, 50.00000000000000000 ) ) ;
#35 = AXIS2_PLACEMENT_3D ( 'NONE', #124, #176, #209 ) ;
#36 = APPLICATION_PROTOCOL_DEFINITION ( 'international standard', 'config_control_design', 1994, #115 ) ;
#37 = PRODUCT_RELATED_PRODUCT_CATEGORY ( 'detail', '', ( #7 ) ) ;
#38 =( NAMED_UNIT ( * ) PLANE_ANGLE_UNIT ( ) SI_UNIT ( $, .RADIAN. ) );
#39 = VERTEX_POINT ( 'NONE', #143 ) ;
#40 = SECURITY_CLASSIFICATION ( '', '', #150 ) ;
#41 = CARTESIAN_POINT ( 'NONE',  ( -2.999999999999973799, 0.0000000000000000000, 7.291502622129188538 ) ) ;
#42 = EDGE_CURVE ( 'NONE', #80, #80, #97, .T. ) ;
#43 =( NAMED_UNIT ( * ) SI_UNIT ( $, .STERADIAN. ) SOLID_ANGLE_UNIT ( ) );
#44 = PERSON_AND_ORGANIZATION ( #66, #109 ) ;
#45 = PERSON_AND_ORGANIZATION_ROLE ( 'design_supplier' ) ;
#46 = AXIS2_PLACEMENT_3D ( 'NONE', #11, #147, #95 ) ;
#47 = EDGE_CURVE ( 'NONE', #183, #183, #220, .T. ) ;
#48 = COORDINATED_UNIVERSAL_TIME_OFFSET ( 1, 0, .AHEAD. ) ;
#49 = EDGE_LOOP ( 'NONE', ( #161 ) ) ;
#50 = DIRECTION ( 'NONE',  ( 3.491481338843133355E-15, -1.224646799147353207E-16, 1.000000000000000000 ) ) ;
#51 = ADVANCED_FACE ( 'NONE', ( #193, #89 ), #191, .T. ) ;
#52 = PLANE ( 'NONE',  #99 ) ;
#53 = CARTESIAN_POINT ( 'NONE',  ( 6.982962677686266711E-15, 2.249639673992783127E-32, 2.000000000000000000 ) ) ;
#54 = CARTESIAN_POINT ( 'NONE',  ( 2.545814533728980109E-14, 0.0000000000000000000, 7.291502622129177880 ) ) ;
#55 = CC_DESIGN_APPROVAL ( #203, ( #112 ) ) ;
#56 = UNCERTAINTY_MEASURE_WITH_UNIT (LENGTH_MEASURE( 1.000000000000000082E-05 ), #221, 'distance_accuracy_value', 'NONE');
#57 = CARTESIAN_POINT ( 'NONE',  ( 1.000000000000007772, 0.0000000000000000000, 1.999999999999994893 ) ) ;
#58 = CARTESIAN_POINT ( 'NONE',  ( -3.206816838010677856E-31, 1.124799933034399755E-32, -9.184688465421452921E-17 ) ) ;
#59 = CARTESIAN_POINT ( 'NONE',  ( 1.000000000000000000, 0.0000000000000000000, -3.491481338843133355E-15 ) ) ;
#60 = DIRECTION ( 'NONE',  ( 3.491481338843133355E-15, -0.0000000000000000000, 1.000000000000000000 ) ) ;
#61 = ADVANCED_FACE ( 'NONE', ( #171 ), #52, .T. ) ;
#62 = VERTEX_POINT ( 'NONE', #41 ) ;
#63 = COORDINATED_UNIVERSAL_TIME_OFFSET ( 1, 0, .AHEAD. ) ;
#64 =( GEOMETRIC_REPRESENTATION_CONTEXT ( 3 ) GLOBAL_UNCERTAINTY_ASSIGNED_CONTEXT ( ( #56 ) ) GLOBAL_UNIT_ASSIGNED_CONTEXT ( ( #221, #38, #43 ) ) REPRESENTATION_CONTEXT ( 'NONE', 'WORKASPACE' ) );
#65 = CC_DESIGN_PERSON_AND_ORGANIZATION_ASSIGNMENT ( #28, #155, ( #112 ) ) ;
#66 = PERSON ( 'UNSPECIFIED', 'UNSPECIFIED', 'UNSPECIFIED', ('UNSPECIFIED'), ('UNSPECIFIED'), ('UNSPECIFIED') ) ;
#67 = CC_DESIGN_SECURITY_CLASSIFICATION ( #40, ( #112 ) ) ;
#68 = AXIS2_PLACEMENT_3D ( 'NONE', #34, #8, #213 ) ;
#69 = ORIENTED_EDGE ( 'NONE', *, *, #192, .F. ) ;
#70 = EDGE_LOOP ( 'NONE', ( #122 ) ) ;
#71 = PLANE ( 'NONE',  #189 ) ;
#72 = ORIENTED_EDGE ( 'NONE', *, *, #167, .F. ) ;
#73 = EDGE_LOOP ( 'NONE', ( #6 ) ) ;
#74 = APPROVAL_ROLE ( '' ) ;
#75 = CC_DESIGN_APPROVAL ( #148, ( #18 ) ) ;
#76 = DESIGN_CONTEXT ( 'detailed design', #115, 'design' ) ;
#77 = AXIS2_PLACEMENT_3D ( 'NONE', #219, #60, #10 ) ;
#78 = CARTESIAN_POINT ( 'NONE',  ( 0.0000000000000000000, 0.0000000000000000000, 0.0000000000000000000 ) ) ;
#79 = DIRECTION ( 'NONE',  ( 4.275831445896958607E-31, 1.000000000000000000, 1.224646799147353207E-16 ) ) ;
#80 = VERTEX_POINT ( 'NONE', #57 ) ;
#81 = PERSON_AND_ORGANIZATION ( #66, #109 ) ;
#82 = APPROVAL ( #185, 'UNSPECIFIED' ) ;
#83 = CALENDAR_DATE ( 2021, 10, 11 ) ;
#84 = DATE_TIME_ROLE ( 'classification_date' ) ;
#85 = DATE_AND_TIME ( #83, #201 ) ;
#86 = DIRECTION ( 'NONE',  ( 0.0000000000000000000, 1.000000000000000000, 0.0000000000000000000 ) ) ;
#87 = CIRCLE ( 'NONE', #91, 2.999999999999999112 ) ;
#88 = EDGE_LOOP ( 'NONE', ( #120 ) ) ;
#89 = FACE_OUTER_BOUND ( 'NONE', #20, .T. ) ;
#90 = FACE_OUTER_BOUND ( 'NONE', #49, .T. ) ;
#91 = AXIS2_PLACEMENT_3D ( 'NONE', #54, #195, #101 ) ;
#92 = DIRECTION ( 'NONE',  ( 1.000000000000000000, 0.0000000000000000000, -3.491481338843132961E-15 ) ) ;
#93 = CARTESIAN_POINT ( 'NONE',  ( 1.728283262727351074E-13, 2.999999999999995559, 49.50000000000000000 ) ) ;
#94 = FACE_BOUND ( 'NONE', #70, .T. ) ;
#95 = DIRECTION ( 'NONE',  ( 0.0000000000000000000, 1.000000000000000000, 0.0000000000000000000 ) ) ;
#96 = DIRECTION ( 'NONE',  ( 0.0000000000000000000, 0.0000000000000000000, 1.000000000000000000 ) ) ;
#97 = CIRCLE ( 'NONE', #16, 1.000000000000000888 ) ;
#98 = PERSON_AND_ORGANIZATION ( #66, #109 ) ;
#99 = AXIS2_PLACEMENT_3D ( 'NONE', #53, #50, #137 ) ;
#100 = APPROVAL_STATUS ( 'not_yet_approved' ) ;
#101 = DIRECTION ( 'NONE',  ( -1.000000000000000000, 0.0000000000000000000, 3.469446951953615372E-15 ) ) ;
#102 = DIRECTION ( 'NONE',  ( -3.491481338843133355E-15, 1.224646799147353207E-16, -1.000000000000000000 ) ) ;
#103 = DIRECTION ( 'NONE',  ( 1.000000000000000000, 0.0000000000000000000, -3.491481338843133355E-15 ) ) ;
#104 = CC_DESIGN_PERSON_AND_ORGANIZATION_ASSIGNMENT ( #200, #223, ( #18 ) ) ;
#105 = FACE_OUTER_BOUND ( 'NONE', #208, .T. ) ;
#106 = CARTESIAN_POINT ( 'NONE',  ( 6.982962677686263555E-15, 0.0000000000000000000, 1.999999999999999112 ) ) ;
#107 = PERSON_AND_ORGANIZATION ( #66, #109 ) ;
#108 = ADVANCED_FACE ( 'NONE', ( #157 ), #30, .F. ) ;
#109 = ORGANIZATION ( 'UNSPECIFIED', 'UNSPECIFIED', '' ) ;
#110 = FACE_OUTER_BOUND ( 'NONE', #73, .T. ) ;
#111 = APPROVAL_DATE_TIME ( #135, #203 ) ;
#112 = PRODUCT_DEFINITION_FORMATION_WITH_SPECIFIED_SOURCE ( 'ANY', '', #7, .NOT_KNOWN. ) ;
#113 = CLOSED_SHELL ( 'NONE', ( #61, #51, #217 ) ) ;
#114 = PERSON_AND_ORGANIZATION ( #66, #109 ) ;
#115 = APPLICATION_CONTEXT ( 'configuration controlled 3d designs of mechanical parts and assemblies' ) ;
#116 = DATE_AND_TIME ( #206, #126 ) ;
#117 = ORIENTED_EDGE ( 'NONE', *, *, #42, .F. ) ;
#118 = CALENDAR_DATE ( 2021, 10, 11 ) ;
#119 = MANIFOLD_SOLID_BREP ( 'Corps-Déplacer/Copier1[2]', #113 ) ;
#120 = ORIENTED_EDGE ( 'NONE', *, *, #47, .F. ) ;
#121 = MANIFOLD_SOLID_BREP ( 'Corps-Déplacer/Copier1[1]', #199 ) ;
#122 = ORIENTED_EDGE ( 'NONE', *, *, #167, .T. ) ;
#123 = CC_DESIGN_PERSON_AND_ORGANIZATION_ASSIGNMENT ( #81, #133, ( #7 ) ) ;
#124 = CARTESIAN_POINT ( 'NONE',  ( 6.982962677686266711E-15, 2.249639673992783127E-32, 2.000000000000000000 ) ) ;
#125 = ORIENTED_EDGE ( 'NONE', *, *, #192, .T. ) ;
#126 = LOCAL_TIME ( 8, 14, 36.00000000000000000, #48 ) ;
#127 = EDGE_LOOP ( 'NONE', ( #31 ) ) ;
#128 = AXIS2_PLACEMENT_3D ( 'NONE', #178, #102, #86 ) ;
#129 = CALENDAR_DATE ( 2021, 10, 11 ) ;
#130 = CARTESIAN_POINT ( 'NONE',  ( 1.745740669421566678E-13, 2.499999999999995559, 50.00000000000000000 ) ) ;
#131 = DIRECTION ( 'NONE',  ( 3.491481338843133355E-15, -1.224646799147353207E-16, 1.000000000000000000 ) ) ;
#132 = CIRCLE ( 'NONE', #68, 2.500000000000001776 ) ;
#133 = PERSON_AND_ORGANIZATION_ROLE ( 'design_owner' ) ;
#134 = EDGE_CURVE ( 'NONE', #198, #198, #187, .T. ) ;
#135 = DATE_AND_TIME ( #26, #144 ) ;
#136 = ORIENTED_EDGE ( 'NONE', *, *, #134, .T. ) ;
#137 = DIRECTION ( 'NONE',  ( -4.275831445896958607E-31, -1.000000000000000000, -1.224646799147353207E-16 ) ) ;
#138 = APPROVAL_PERSON_ORGANIZATION ( #107, #148, #74 ) ;
#139 = CARTESIAN_POINT ( 'NONE',  ( 1.745740669421566678E-13, 1.874699728327314346E-32, 50.00000000000000000 ) ) ;
#140 = DIRECTION ( 'NONE',  ( 3.491481338843133355E-15, -0.0000000000000000000, 1.000000000000000000 ) ) ;
#141 = COORDINATED_UNIVERSAL_TIME_OFFSET ( 1, 0, .AHEAD. ) ;
#142 = CONICAL_SURFACE ( 'NONE', #46, 2.500000000000001776, 0.7853981633974479459 ) ;
#143 = CARTESIAN_POINT ( 'NONE',  ( 1.000000000000007772, 0.0000000000000000000, 1.999999999999994893 ) ) ;
#144 = LOCAL_TIME ( 8, 14, 36.00000000000000000, #154 ) ;
#145 = FACE_OUTER_BOUND ( 'NONE', #127, .T. ) ;
#146 = AXIS2_PLACEMENT_3D ( 'NONE', #211, #174, #103 ) ;
#147 = DIRECTION ( 'NONE',  ( -3.491481338843133355E-15, 1.224646799147353207E-16, -1.000000000000000000 ) ) ;
#148 = APPROVAL ( #9, 'UNSPECIFIED' ) ;
#149 = DATE_AND_TIME ( #118, #207 ) ;
#150 = SECURITY_CLASSIFICATION_LEVEL ( 'unclassified' ) ;
#151 = ADVANCED_FACE ( 'NONE', ( #105, #90 ), #168, .F. ) ;
#152 = COORDINATED_UNIVERSAL_TIME_OFFSET ( 1, 0, .AHEAD. ) ;
#153 = EDGE_LOOP ( 'NONE', ( #69 ) ) ;
#154 = COORDINATED_UNIVERSAL_TIME_OFFSET ( 1, 0, .AHEAD. ) ;
#155 = PERSON_AND_ORGANIZATION_ROLE ( 'creator' ) ;
#156 = APPROVAL_PERSON_ORGANIZATION ( #44, #203, #14 ) ;
#157 = FACE_OUTER_BOUND ( 'NONE', #153, .T. ) ;
#158 = ORIENTED_EDGE ( 'NONE', *, *, #42, .T. ) ;
#159 = CARTESIAN_POINT ( 'NONE',  ( 0.0000000000000000000, 0.0000000000000000000, 0.0000000000000000000 ) ) ;
#160 = ADVANCED_BREP_SHAPE_REPRESENTATION ( '64386', ( #121, #119, #210 ), #64 ) ;
#161 = ORIENTED_EDGE ( 'NONE', *, *, #175, .T. ) ;
#162 = CC_DESIGN_PERSON_AND_ORGANIZATION_ASSIGNMENT ( #114, #204, ( #40 ) ) ;
#163 = EDGE_LOOP ( 'NONE', ( #21 ) ) ;
#164 = FACE_OUTER_BOUND ( 'NONE', #88, .T. ) ;
#165 = DIRECTION ( 'NONE',  ( -3.491481338843133355E-15, 1.224646799147353207E-16, -1.000000000000000000 ) ) ;
#166 = PLANE ( 'NONE',  #202 ) ;
#167 = EDGE_CURVE ( 'NONE', #214, #214, #132, .T. ) ;
#168 = TOROIDAL_SURFACE ( 'NONE', #24, 9.000000000000001776, 8.000000000000000000 ) ;
#169 = SHAPE_DEFINITION_REPRESENTATION ( #190, #160 ) ;
#170 = APPROVAL_DATE_TIME ( #85, #82 ) ;
#171 = FACE_OUTER_BOUND ( 'NONE', #205, .T. ) ;
#172 = APPROVAL_PERSON_ORGANIZATION ( #98, #82, #1 ) ;
#173 = AXIS2_PLACEMENT_3D ( 'NONE', #78, #165, #79 ) ;
#174 = DIRECTION ( 'NONE',  ( 3.491481338843133355E-15, -0.0000000000000000000, 1.000000000000000000 ) ) ;
#175 = EDGE_CURVE ( 'NONE', #62, #62, #87, .T. ) ;
#176 = DIRECTION ( 'NONE',  ( 3.491481338843133355E-15, -1.224646799147353207E-16, 1.000000000000000000 ) ) ;
#177 = CC_DESIGN_PERSON_AND_ORGANIZATION_ASSIGNMENT ( #13, #45, ( #112 ) ) ;
#178 = CARTESIAN_POINT ( 'NONE',  ( 1.728283262727351074E-13, -6.062001655779398511E-15, 49.50000000000000000 ) ) ;
#179 = DIRECTION ( 'NONE',  ( 3.491481338843133355E-15, -0.0000000000000000000, 1.000000000000000000 ) ) ;
#180 = CC_DESIGN_DATE_AND_TIME_ASSIGNMENT ( #116, #84, ( #40 ) ) ;
#181 = DIRECTION ( 'NONE',  ( -4.275831445896958607E-31, -1.000000000000000000, -1.224646799147353207E-16 ) ) ;
#182 = LOCAL_TIME ( 8, 14, 36.00000000000000000, #141 ) ;
#183 = VERTEX_POINT ( 'NONE', #93 ) ;
#184 = APPLICATION_CONTEXT ( 'configuration controlled 3d designs of mechanical parts and assemblies' ) ;
#185 = APPROVAL_STATUS ( 'not_yet_approved' ) ;
#186 = ADVANCED_FACE ( 'NONE', ( #164, #94 ), #142, .T. ) ;
#187 = CIRCLE ( 'NONE', #5, 1.000000000000000000 ) ;
#188 = ADVANCED_FACE ( 'NONE', ( #218, #110 ), #23, .T. ) ;
#189 = AXIS2_PLACEMENT_3D ( 'NONE', #139, #3, #212 ) ;
#190 = PRODUCT_DEFINITION_SHAPE ( 'NONE', 'NONE',  #18 ) ;
#191 = CYLINDRICAL_SURFACE ( 'NONE', #146, 1.000000000000000444 ) ;
#192 = EDGE_CURVE ( 'NONE', #39, #39, #215, .T. ) ;
#193 = FACE_OUTER_BOUND ( 'NONE', #15, .T. ) ;
#194 = FACE_OUTER_BOUND ( 'NONE', #19, .T. ) ;
#195 = DIRECTION ( 'NONE',  ( -3.491481338843133355E-15, 0.0000000000000000000, -1.000000000000000000 ) ) ;
#196 = DATE_AND_TIME ( #129, #182 ) ;
#197 = APPLICATION_PROTOCOL_DEFINITION ( 'international standard', 'config_control_design', 1994, #184 ) ;
#198 = VERTEX_POINT ( 'NONE', #59 ) ;
#199 = CLOSED_SHELL ( 'NONE', ( #188, #186, #32, #151, #108 ) ) ;
#200 = PERSON_AND_ORGANIZATION ( #66, #109 ) ;
#201 = LOCAL_TIME ( 8, 14, 36.00000000000000000, #63 ) ;
#202 = AXIS2_PLACEMENT_3D ( 'NONE', #58, #131, #181 ) ;
#203 = APPROVAL ( #100, 'UNSPECIFIED' ) ;
#204 = PERSON_AND_ORGANIZATION_ROLE ( 'classification_officer' ) ;
#205 = EDGE_LOOP ( 'NONE', ( #158 ) ) ;
#206 = CALENDAR_DATE ( 2021, 10, 11 ) ;
#207 = LOCAL_TIME ( 8, 14, 36.00000000000000000, #152 ) ;
#208 = EDGE_LOOP ( 'NONE', ( #125 ) ) ;
#209 = DIRECTION ( 'NONE',  ( -4.275831445896958607E-31, -1.000000000000000000, -1.224646799147353207E-16 ) ) ;
#210 = AXIS2_PLACEMENT_3D ( 'NONE', #25, #96, #216 ) ;
#211 = CARTESIAN_POINT ( 'NONE',  ( 0.0000000000000000000, 0.0000000000000000000, 0.0000000000000000000 ) ) ;
#212 = DIRECTION ( 'NONE',  ( 4.275831445896958607E-31, 1.000000000000000000, 1.224646799147353207E-16 ) ) ;
#213 = DIRECTION ( 'NONE',  ( 0.0000000000000000000, 1.000000000000000000, 0.0000000000000000000 ) ) ;
#214 = VERTEX_POINT ( 'NONE', #130 ) ;
#215 = CIRCLE ( 'NONE', #77, 1.000000000000000888 ) ;
#216 = DIRECTION ( 'NONE',  ( 1.000000000000000000, 0.0000000000000000000, 0.0000000000000000000 ) ) ;
#217 = ADVANCED_FACE ( 'NONE', ( #145 ), #166, .F. ) ;
#218 = FACE_OUTER_BOUND ( 'NONE', #163, .T. ) ;
#219 = CARTESIAN_POINT ( 'NONE',  ( 6.982962677686260400E-15, 0.0000000000000000000, 1.999999999999998224 ) ) ;
#220 = CIRCLE ( 'NONE', #128, 3.000000000000001776 ) ;
#221 =( LENGTH_UNIT ( ) NAMED_UNIT ( * ) SI_UNIT ( .MILLI., .METRE. ) );
#222 = DATE_TIME_ROLE ( 'creation_date' ) ;
#223 = PERSON_AND_ORGANIZATION_ROLE ( 'creator' ) ;
ENDSEC;
END-ISO-10303-21;
