ISO-10303-21;
HEADER;
FILE_DESCRIPTION (( 'STEP AP203' ),
    '1' );
FILE_NAME ('64385.step',
    '2021-11-10T07:14:35',
    ( '' ),
    ( '' ),
    'SwSTEP 2.0',
    'SolidWorks 2019',
    '' );
FILE_SCHEMA (( 'CONFIG_CONTROL_DESIGN' ));
ENDSEC;

DATA;
#1 = DIRECTION ( 'NONE',  ( 3.491481338843133355E-15, -1.224646799147353207E-16, 1.000000000000000000 ) ) ;
#2 = DATE_TIME_ROLE ( 'creation_date' ) ;
#3 = EDGE_LOOP ( 'NONE', ( #123 ) ) ;
#4 = CC_DESIGN_PERSON_AND_ORGANIZATION_ASSIGNMENT ( #122, #37, ( #127 ) ) ;
#5 = DATE_AND_TIME ( #35, #116 ) ;
#6 = CARTESIAN_POINT ( 'NONE',  ( 1.326762908760390423E-13, -4.653657836759941941E-15, 38.00000000000000000 ) ) ;
#7 = EDGE_LOOP ( 'NONE', ( #39 ) ) ;
#8 = PERSON_AND_ORGANIZATION_ROLE ( 'creator' ) ;
#9 = ORIENTED_EDGE ( 'NONE', *, *, #92, .T. ) ;
#10 = ADVANCED_FACE ( 'NONE', ( #163, #128 ), #165, .T. ) ;
#11 = CYLINDRICAL_SURFACE ( 'NONE', #45, 1.499999999999996447 ) ;
#12 = DIRECTION ( 'NONE',  ( 0.0000000000000000000, 1.000000000000000000, 0.0000000000000000000 ) ) ;
#13 = CC_DESIGN_APPROVAL ( #81, ( #139 ) ) ;
#14 = CARTESIAN_POINT ( 'NONE',  ( 1.316288464743861212E-13, 1.499999999999994005, 37.69999999999999574 ) ) ;
#15 = EDGE_CURVE ( 'NONE', #206, #206, #63, .T. ) ;
#16 = APPROVAL_STATUS ( 'not_yet_approved' ) ;
#17 = CARTESIAN_POINT ( 'NONE',  ( 1.326762908760390423E-13, 1.199999999999994182, 38.00000000000000000 ) ) ;
#18 = AXIS2_PLACEMENT_3D ( 'NONE', #75, #46, #25 ) ;
#19 = APPROVAL ( #162, 'UNSPECIFIED' ) ;
#20 = DATE_AND_TIME ( #193, #53 ) ;
#21 = CALENDAR_DATE ( 2021, 10, 11 ) ;
#22 = DIRECTION ( 'NONE',  ( -4.275831445896958607E-31, -1.000000000000000000, -1.224646799147353207E-16 ) ) ;
#23 = FACE_OUTER_BOUND ( 'NONE', #140, .T. ) ;
#24 = ADVANCED_FACE ( 'NONE', ( #215, #214 ), #11, .T. ) ;
#25 = DIRECTION ( 'NONE',  ( -1.000000000000000000, 0.0000000000000000000, 3.469446951953622472E-15 ) ) ;
#26 = DIRECTION ( 'NONE',  ( 1.000000000000000000, 0.0000000000000000000, -3.558407130208834256E-15 ) ) ;
#27 = FACE_OUTER_BOUND ( 'NONE', #178, .T. ) ;
#28 = DIRECTION ( 'NONE',  ( 3.491481338843133355E-15, -0.0000000000000000000, 1.000000000000000000 ) ) ;
#29 = PERSON_AND_ORGANIZATION_ROLE ( 'design_owner' ) ;
#30 = MANIFOLD_SOLID_BREP ( 'Corps-Déplacer/Copier1[2]', #36 ) ;
#31 = CARTESIAN_POINT ( 'NONE',  ( 0.9750000000000069722, 0.0000000000000000000, 1.949999999999994849 ) ) ;
#32 = ADVANCED_FACE ( 'NONE', ( #23 ), #166, .F. ) ;
#33 = CARTESIAN_POINT ( 'NONE',  ( -1.499999999999979572, 0.0000000000000000000, 4.800328928387031624 ) ) ;
#34 = DIRECTION ( 'NONE',  ( -4.275831445896958607E-31, -1.000000000000000000, -1.224646799147353207E-16 ) ) ;
#35 = CALENDAR_DATE ( 2021, 10, 11 ) ;
#36 = CLOSED_SHELL ( 'NONE', ( #200, #196, #192 ) ) ;
#37 = PERSON_AND_ORGANIZATION_ROLE ( 'design_supplier' ) ;
#38 = ORIENTED_EDGE ( 'NONE', *, *, #102, .F. ) ;
#39 = ORIENTED_EDGE ( 'NONE', *, *, #15, .F. ) ;
#40 = CIRCLE ( 'NONE', #194, 1.499999999999998446 ) ;
#41 = DIRECTION ( 'NONE',  ( 3.491481338843133355E-15, -0.0000000000000000000, 1.000000000000000000 ) ) ;
#42 = PRODUCT_RELATED_PRODUCT_CATEGORY ( 'detail', '', ( #109 ) ) ;
#43 = CARTESIAN_POINT ( 'NONE',  ( 0.0000000000000000000, 0.0000000000000000000, 0.0000000000000000000 ) ) ;
#44 = CC_DESIGN_PERSON_AND_ORGANIZATION_ASSIGNMENT ( #86, #8, ( #127 ) ) ;
#45 = AXIS2_PLACEMENT_3D ( 'NONE', #43, #180, #203 ) ;
#46 = DIRECTION ( 'NONE',  ( -3.491481338843133355E-15, 0.0000000000000000000, -1.000000000000000000 ) ) ;
#47 = EDGE_CURVE ( 'NONE', #121, #121, #130, .T. ) ;
#48 = VERTEX_POINT ( 'NONE', #14 ) ;
#49 = DIRECTION ( 'NONE',  ( 1.000000000000000000, 0.0000000000000000000, 0.0000000000000000000 ) ) ;
#50 = CARTESIAN_POINT ( 'NONE',  ( 6.808388610744110043E-15, -2.818925648462319417E-16, 1.949999999999999956 ) ) ;
#51 =( GEOMETRIC_REPRESENTATION_CONTEXT ( 3 ) GLOBAL_UNCERTAINTY_ASSIGNED_CONTEXT ( ( #141 ) ) GLOBAL_UNIT_ASSIGNED_CONTEXT ( ( #152, #119, #222 ) ) REPRESENTATION_CONTEXT ( 'NONE', 'WORKASPACE' ) );
#52 = PERSON_AND_ORGANIZATION ( #88, #179 ) ;
#53 = LOCAL_TIME ( 8, 14, 35.00000000000000000, #103 ) ;
#54 = DESIGN_CONTEXT ( 'detailed design', #185, 'design' ) ;
#55 = CARTESIAN_POINT ( 'NONE',  ( 1.316288464743861212E-13, -4.616918432785521081E-15, 37.69999999999999574 ) ) ;
#56 = CARTESIAN_POINT ( 'NONE',  ( 6.808388610744104521E-15, 0.0000000000000000000, 1.949999999999998401 ) ) ;
#57 = DIRECTION ( 'NONE',  ( -3.491481338843133355E-15, 1.224646799147353207E-16, -1.000000000000000000 ) ) ;
#58 = EDGE_LOOP ( 'NONE', ( #70 ) ) ;
#59 = CC_DESIGN_DATE_AND_TIME_ASSIGNMENT ( #5, #2, ( #139 ) ) ;
#60 = APPROVAL_PERSON_ORGANIZATION ( #72, #106, #175 ) ;
#61 = EDGE_LOOP ( 'NONE', ( #110 ) ) ;
#62 = CARTESIAN_POINT ( 'NONE',  ( 0.9749999999999999778, 0.0000000000000000000, -3.404194305372055021E-15 ) ) ;
#63 = CIRCLE ( 'NONE', #77, 0.9749999999999999778 ) ;
#64 = FACE_OUTER_BOUND ( 'NONE', #219, .T. ) ;
#65 = PERSON_AND_ORGANIZATION ( #88, #179 ) ;
#66 = CARTESIAN_POINT ( 'NONE',  ( 0.0000000000000000000, 0.0000000000000000000, 0.0000000000000000000 ) ) ;
#67 = AXIS2_PLACEMENT_3D ( 'NONE', #56, #71, #26 ) ;
#68 = PERSON_AND_ORGANIZATION ( #88, #179 ) ;
#69 = PERSON_AND_ORGANIZATION ( #88, #179 ) ;
#70 = ORIENTED_EDGE ( 'NONE', *, *, #15, .T. ) ;
#71 = DIRECTION ( 'NONE',  ( 3.491481338843133355E-15, -0.0000000000000000000, 1.000000000000000000 ) ) ;
#72 = PERSON_AND_ORGANIZATION ( #88, #179 ) ;
#73 = EDGE_LOOP ( 'NONE', ( #161 ) ) ;
#74 = CARTESIAN_POINT ( 'NONE',  ( 6.808388610744104521E-15, 0.0000000000000000000, 1.949999999999998401 ) ) ;
#75 = CARTESIAN_POINT ( 'NONE',  ( 1.676025887377215784E-14, 0.0000000000000000000, 4.800328928387026295 ) ) ;
#76 = CC_DESIGN_PERSON_AND_ORGANIZATION_ASSIGNMENT ( #65, #29, ( #109 ) ) ;
#77 = AXIS2_PLACEMENT_3D ( 'NONE', #129, #89, #201 ) ;
#78 = CC_DESIGN_APPROVAL ( #106, ( #146 ) ) ;
#79 = DIRECTION ( 'NONE',  ( 3.491481338843133355E-15, -0.0000000000000000000, 1.000000000000000000 ) ) ;
#80 = CARTESIAN_POINT ( 'NONE',  ( 0.9750000000000069722, 0.0000000000000000000, 1.949999999999994849 ) ) ;
#81 = APPROVAL ( #16, 'UNSPECIFIED' ) ;
#82 = AXIS2_PLACEMENT_3D ( 'NONE', #94, #79, #149 ) ;
#83 = VERTEX_POINT ( 'NONE', #17 ) ;
#84 = FACE_OUTER_BOUND ( 'NONE', #7, .T. ) ;
#85 = DATE_AND_TIME ( #156, #136 ) ;
#86 = PERSON_AND_ORGANIZATION ( #88, #179 ) ;
#87 = EDGE_CURVE ( 'NONE', #48, #48, #40, .T. ) ;
#88 = PERSON ( 'UNSPECIFIED', 'UNSPECIFIED', 'UNSPECIFIED', ('UNSPECIFIED'), ('UNSPECIFIED'), ('UNSPECIFIED') ) ;
#89 = DIRECTION ( 'NONE',  ( 3.491481338843133355E-15, -0.0000000000000000000, 1.000000000000000000 ) ) ;
#90 = AXIS2_PLACEMENT_3D ( 'NONE', #93, #114, #22 ) ;
#91 = ORIENTED_EDGE ( 'NONE', *, *, #92, .F. ) ;
#92 = EDGE_CURVE ( 'NONE', #118, #118, #167, .T. ) ;
#93 = CARTESIAN_POINT ( 'NONE',  ( 6.808388610744110043E-15, -2.818925648462319417E-16, 1.949999999999999956 ) ) ;
#94 = CARTESIAN_POINT ( 'NONE',  ( 6.808388610744108465E-15, 0.0000000000000000000, 1.949999999999999512 ) ) ;
#95 = TOROIDAL_SURFACE ( 'NONE', #82, 8.974999999999999645, 8.000000000000000000 ) ;
#96 = APPLICATION_CONTEXT ( 'configuration controlled 3d designs of mechanical parts and assemblies' ) ;
#97 = PLANE ( 'NONE',  #210 ) ;
#98 = DIRECTION ( 'NONE',  ( -4.275831445896958607E-31, -1.000000000000000000, -1.224646799147353207E-16 ) ) ;
#99 = DIRECTION ( 'NONE',  ( 0.0000000000000000000, 0.0000000000000000000, 1.000000000000000000 ) ) ;
#100 = APPROVAL_PERSON_ORGANIZATION ( #169, #81, #153 ) ;
#101 = VERTEX_POINT ( 'NONE', #33 ) ;
#102 = EDGE_CURVE ( 'NONE', #83, #83, #202, .T. ) ;
#103 = COORDINATED_UNIVERSAL_TIME_OFFSET ( 1, 0, .AHEAD. ) ;
#104 = DATE_TIME_ROLE ( 'classification_date' ) ;
#105 = APPROVAL_DATE_TIME ( #85, #19 ) ;
#106 = APPROVAL ( #138, 'UNSPECIFIED' ) ;
#107 = CC_DESIGN_SECURITY_CLASSIFICATION ( #146, ( #127 ) ) ;
#108 = DIRECTION ( 'NONE',  ( -3.491481338843133355E-15, 1.224646799147353207E-16, -1.000000000000000000 ) ) ;
#109 = PRODUCT ( '64385', '64385', '', ( #190 ) ) ;
#110 = ORIENTED_EDGE ( 'NONE', *, *, #47, .T. ) ;
#111 = EDGE_CURVE ( 'NONE', #101, #101, #216, .T. ) ;
#112 = FACE_OUTER_BOUND ( 'NONE', #73, .T. ) ;
#113 = AXIS2_PLACEMENT_3D ( 'NONE', #168, #28, #188 ) ;
#114 = DIRECTION ( 'NONE',  ( 3.491481338843133355E-15, -1.224646799147353207E-16, 1.000000000000000000 ) ) ;
#115 = CLOSED_SHELL ( 'NONE', ( #24, #10, #151, #117, #32 ) ) ;
#116 = LOCAL_TIME ( 8, 14, 35.00000000000000000, #195 ) ;
#117 = ADVANCED_FACE ( 'NONE', ( #147, #112 ), #95, .F. ) ;
#118 = VERTEX_POINT ( 'NONE', #80 ) ;
#119 =( NAMED_UNIT ( * ) PLANE_ANGLE_UNIT ( ) SI_UNIT ( $, .RADIAN. ) );
#120 = APPLICATION_PROTOCOL_DEFINITION ( 'international standard', 'config_control_design', 1994, #185 ) ;
#121 = VERTEX_POINT ( 'NONE', #31 ) ;
#122 = PERSON_AND_ORGANIZATION ( #88, #179 ) ;
#123 = ORIENTED_EDGE ( 'NONE', *, *, #102, .T. ) ;
#124 = DIRECTION ( 'NONE',  ( 0.0000000000000000000, 1.000000000000000000, 0.0000000000000000000 ) ) ;
#125 = COORDINATED_UNIVERSAL_TIME_OFFSET ( 1, 0, .AHEAD. ) ;
#126 = ORIENTED_EDGE ( 'NONE', *, *, #87, .F. ) ;
#127 = PRODUCT_DEFINITION_FORMATION_WITH_SPECIFIED_SOURCE ( 'ANY', '', #109, .NOT_KNOWN. ) ;
#128 = FACE_BOUND ( 'NONE', #3, .T. ) ;
#129 = CARTESIAN_POINT ( 'NONE',  ( 0.0000000000000000000, 0.0000000000000000000, 0.0000000000000000000 ) ) ;
#130 = CIRCLE ( 'NONE', #67, 0.9750000000000001998 ) ;
#131 = ORIENTED_EDGE ( 'NONE', *, *, #111, .F. ) ;
#132 = DIRECTION ( 'NONE',  ( 4.275831445896958607E-31, 1.000000000000000000, 1.224646799147353207E-16 ) ) ;
#133 = APPROVAL_PERSON_ORGANIZATION ( #68, #19, #211 ) ;
#134 = CARTESIAN_POINT ( 'NONE',  ( -6.413803915257457113E-31, 2.249659577954772199E-32, -1.836986451539393076E-16 ) ) ;
#135 = FACE_OUTER_BOUND ( 'NONE', #61, .T. ) ;
#136 = LOCAL_TIME ( 8, 14, 35.00000000000000000, #177 ) ;
#137 = APPROVAL_DATE_TIME ( #207, #81 ) ;
#138 = APPROVAL_STATUS ( 'not_yet_approved' ) ;
#139 = PRODUCT_DEFINITION ( 'UNKNOWN', '', #127, #54 ) ;
#140 = EDGE_LOOP ( 'NONE', ( #91 ) ) ;
#141 = UNCERTAINTY_MEASURE_WITH_UNIT (LENGTH_MEASURE( 1.000000000000000082E-05 ), #152, 'distance_accuracy_value', 'NONE');
#142 = CARTESIAN_POINT ( 'NONE',  ( 1.326762908760390423E-13, 8.998558695971069014E-33, 38.00000000000000000 ) ) ;
#143 = EDGE_LOOP ( 'NONE', ( #126 ) ) ;
#144 = EDGE_LOOP ( 'NONE', ( #199 ) ) ;
#145 = AXIS2_PLACEMENT_3D ( 'NONE', #66, #99, #49 ) ;
#146 = SECURITY_CLASSIFICATION ( '', '', #209 ) ;
#147 = FACE_OUTER_BOUND ( 'NONE', #176, .T. ) ;
#148 = CC_DESIGN_DATE_AND_TIME_ASSIGNMENT ( #20, #104, ( #146 ) ) ;
#149 = DIRECTION ( 'NONE',  ( 1.000000000000000000, 0.0000000000000000000, -3.491481338843133355E-15 ) ) ;
#150 = CYLINDRICAL_SURFACE ( 'NONE', #113, 0.9750000000000000888 ) ;
#151 = ADVANCED_FACE ( 'NONE', ( #27 ), #97, .F. ) ;
#152 =( LENGTH_UNIT ( ) NAMED_UNIT ( * ) SI_UNIT ( .MILLI., .METRE. ) );
#153 = APPROVAL_ROLE ( '' ) ;
#154 = PLANE ( 'NONE',  #218 ) ;
#155 = PRODUCT_DEFINITION_SHAPE ( 'NONE', 'NONE',  #139 ) ;
#156 = CALENDAR_DATE ( 2021, 10, 11 ) ;
#157 = DATE_AND_TIME ( #21, #184 ) ;
#158 = AXIS2_PLACEMENT_3D ( 'NONE', #6, #164, #12 ) ;
#159 = APPROVAL_DATE_TIME ( #157, #106 ) ;
#160 = LOCAL_TIME ( 8, 14, 35.00000000000000000, #223 ) ;
#161 = ORIENTED_EDGE ( 'NONE', *, *, #111, .T. ) ;
#162 = APPROVAL_STATUS ( 'not_yet_approved' ) ;
#163 = FACE_OUTER_BOUND ( 'NONE', #143, .T. ) ;
#164 = DIRECTION ( 'NONE',  ( -3.491481338843133355E-15, 1.224646799147353207E-16, -1.000000000000000000 ) ) ;
#165 = CONICAL_SURFACE ( 'NONE', #187, 1.199999999999998845, 0.7853981633974450594 ) ;
#166 = PLANE ( 'NONE',  #90 ) ;
#167 = CIRCLE ( 'NONE', #183, 0.9750000000000001998 ) ;
#168 = CARTESIAN_POINT ( 'NONE',  ( 0.0000000000000000000, 0.0000000000000000000, 0.0000000000000000000 ) ) ;
#169 = PERSON_AND_ORGANIZATION ( #88, #179 ) ;
#170 = ADVANCED_BREP_SHAPE_REPRESENTATION ( '64385', ( #182, #30, #145 ), #51 ) ;
#171 = AXIS2_PLACEMENT_3D ( 'NONE', #134, #1, #34 ) ;
#172 = APPLICATION_PROTOCOL_DEFINITION ( 'international standard', 'config_control_design', 1994, #96 ) ;
#173 = CALENDAR_DATE ( 2021, 10, 11 ) ;
#174 = PERSON_AND_ORGANIZATION_ROLE ( 'creator' ) ;
#175 = APPROVAL_ROLE ( '' ) ;
#176 = EDGE_LOOP ( 'NONE', ( #9 ) ) ;
#177 = COORDINATED_UNIVERSAL_TIME_OFFSET ( 1, 0, .AHEAD. ) ;
#178 = EDGE_LOOP ( 'NONE', ( #38 ) ) ;
#179 = ORGANIZATION ( 'UNSPECIFIED', 'UNSPECIFIED', '' ) ;
#180 = DIRECTION ( 'NONE',  ( -3.491481338843133355E-15, 1.224646799147353207E-16, -1.000000000000000000 ) ) ;
#181 = DIRECTION ( 'NONE',  ( 1.000000000000000000, 0.0000000000000000000, -3.558407130208834256E-15 ) ) ;
#182 = MANIFOLD_SOLID_BREP ( 'Corps-Déplacer/Copier1[1]', #115 ) ;
#183 = AXIS2_PLACEMENT_3D ( 'NONE', #74, #41, #181 ) ;
#184 = LOCAL_TIME ( 8, 14, 35.00000000000000000, #125 ) ;
#185 = APPLICATION_CONTEXT ( 'configuration controlled 3d designs of mechanical parts and assemblies' ) ;
#186 = CARTESIAN_POINT ( 'NONE',  ( 1.326762908760390423E-13, -4.653657836759941941E-15, 38.00000000000000000 ) ) ;
#187 = AXIS2_PLACEMENT_3D ( 'NONE', #186, #108, #198 ) ;
#188 = DIRECTION ( 'NONE',  ( 1.000000000000000000, 0.0000000000000000000, -3.491481338843132961E-15 ) ) ;
#189 = CC_DESIGN_PERSON_AND_ORGANIZATION_ASSIGNMENT ( #69, #208, ( #146 ) ) ;
#190 = MECHANICAL_CONTEXT ( 'NONE', #96, 'mechanical' ) ;
#191 = PLANE ( 'NONE',  #171 ) ;
#192 = ADVANCED_FACE ( 'NONE', ( #84 ), #191, .F. ) ;
#193 = CALENDAR_DATE ( 2021, 10, 11 ) ;
#194 = AXIS2_PLACEMENT_3D ( 'NONE', #55, #57, #124 ) ;
#195 = COORDINATED_UNIVERSAL_TIME_OFFSET ( 1, 0, .AHEAD. ) ;
#196 = ADVANCED_FACE ( 'NONE', ( #204, #64 ), #150, .T. ) ;
#197 = ORIENTED_EDGE ( 'NONE', *, *, #47, .F. ) ;
#198 = DIRECTION ( 'NONE',  ( 0.0000000000000000000, 1.000000000000000000, 0.0000000000000000000 ) ) ;
#199 = ORIENTED_EDGE ( 'NONE', *, *, #87, .T. ) ;
#200 = ADVANCED_FACE ( 'NONE', ( #135 ), #154, .T. ) ;
#201 = DIRECTION ( 'NONE',  ( 1.000000000000000000, 0.0000000000000000000, -3.491481338843133355E-15 ) ) ;
#202 = CIRCLE ( 'NONE', #158, 1.199999999999998845 ) ;
#203 = DIRECTION ( 'NONE',  ( 4.275831445896958607E-31, 1.000000000000000000, 1.224646799147352961E-16 ) ) ;
#204 = FACE_OUTER_BOUND ( 'NONE', #58, .T. ) ;
#205 = CC_DESIGN_APPROVAL ( #19, ( #127 ) ) ;
#206 = VERTEX_POINT ( 'NONE', #62 ) ;
#207 = DATE_AND_TIME ( #173, #160 ) ;
#208 = PERSON_AND_ORGANIZATION_ROLE ( 'classification_officer' ) ;
#209 = SECURITY_CLASSIFICATION_LEVEL ( 'unclassified' ) ;
#210 = AXIS2_PLACEMENT_3D ( 'NONE', #142, #212, #132 ) ;
#211 = APPROVAL_ROLE ( '' ) ;
#212 = DIRECTION ( 'NONE',  ( -3.491481338843133355E-15, 1.224646799147353207E-16, -1.000000000000000000 ) ) ;
#213 = SHAPE_DEFINITION_REPRESENTATION ( #155, #170 ) ;
#214 = FACE_OUTER_BOUND ( 'NONE', #217, .T. ) ;
#215 = FACE_OUTER_BOUND ( 'NONE', #144, .T. ) ;
#216 = CIRCLE ( 'NONE', #18, 1.499999999999996447 ) ;
#217 = EDGE_LOOP ( 'NONE', ( #131 ) ) ;
#218 = AXIS2_PLACEMENT_3D ( 'NONE', #50, #220, #98 ) ;
#219 = EDGE_LOOP ( 'NONE', ( #197 ) ) ;
#220 = DIRECTION ( 'NONE',  ( 3.491481338843133355E-15, -1.224646799147353207E-16, 1.000000000000000000 ) ) ;
#221 = CC_DESIGN_PERSON_AND_ORGANIZATION_ASSIGNMENT ( #52, #174, ( #139 ) ) ;
#222 =( NAMED_UNIT ( * ) SI_UNIT ( $, .STERADIAN. ) SOLID_ANGLE_UNIT ( ) );
#223 = COORDINATED_UNIVERSAL_TIME_OFFSET ( 1, 0, .AHEAD. ) ;
ENDSEC;
END-ISO-10303-21;
