ISO-10303-21;
HEADER;
FILE_DESCRIPTION (( 'STEP AP203' ),
    '1' );
FILE_NAME ('64384.step',
    '2021-11-10T07:14:34',
    ( '' ),
    ( '' ),
    'SwSTEP 2.0',
    'SolidWorks 2019',
    '' );
FILE_SCHEMA (( 'CONFIG_CONTROL_DESIGN' ));
ENDSEC;

DATA;
#1 = DIRECTION ( 'NONE',  ( -3.491481338843133355E-15, 1.224646799147353207E-16, -1.000000000000000000 ) ) ;
#2 = APPROVAL_DATE_TIME ( #42, #92 ) ;
#3 = CIRCLE ( 'NONE', #188, 1.499999999999998446 ) ;
#4 = UNCERTAINTY_MEASURE_WITH_UNIT (LENGTH_MEASURE( 1.000000000000000082E-05 ), #10, 'distance_accuracy_value', 'NONE');
#5 = ORGANIZATION ( 'UNSPECIFIED', 'UNSPECIFIED', '' ) ;
#6 = CARTESIAN_POINT ( 'NONE',  ( 0.0000000000000000000, 0.0000000000000000000, 0.0000000000000000000 ) ) ;
#7 = FACE_OUTER_BOUND ( 'NONE', #103, .T. ) ;
#8 = CARTESIAN_POINT ( 'NONE',  ( 6.633814543801952586E-15, -2.746645503629952126E-16, 1.899999999999999689 ) ) ;
#9 = CARTESIAN_POINT ( 'NONE',  ( 1.326762908760390423E-13, -4.653657836759941941E-15, 38.00000000000000000 ) ) ;
#10 =( LENGTH_UNIT ( ) NAMED_UNIT ( * ) SI_UNIT ( .MILLI., .METRE. ) );
#11 = EDGE_CURVE ( 'NONE', #170, #170, #218, .T. ) ;
#12 = SHAPE_DEFINITION_REPRESENTATION ( #55, #20 ) ;
#13 = AXIS2_PLACEMENT_3D ( 'NONE', #6, #56, #82 ) ;
#14 = CIRCLE ( 'NONE', #64, 0.9499999999999995115 ) ;
#15 = EDGE_LOOP ( 'NONE', ( #106 ) ) ;
#16 = EDGE_CURVE ( 'NONE', #217, #217, #44, .T. ) ;
#17 = CARTESIAN_POINT ( 'NONE',  ( 1.326762908760390423E-13, -4.653657836759941941E-15, 38.00000000000000000 ) ) ;
#18 = CC_DESIGN_APPROVAL ( #161, ( #27 ) ) ;
#19 = PERSON_AND_ORGANIZATION ( #95, #5 ) ;
#20 = ADVANCED_BREP_SHAPE_REPRESENTATION ( '64384', ( #25, #23, #13 ), #192 ) ;
#21 = APPLICATION_CONTEXT ( 'configuration controlled 3d designs of mechanical parts and assemblies' ) ;
#22 = APPROVAL_PERSON_ORGANIZATION ( #37, #92, #87 ) ;
#23 = MANIFOLD_SOLID_BREP ( 'Corps-Déplacer/Copier1[2]', #111 ) ;
#24 = EDGE_CURVE ( 'NONE', #182, #182, #3, .T. ) ;
#25 = MANIFOLD_SOLID_BREP ( 'Corps-Déplacer/Copier1[1]', #204 ) ;
#26 = AXIS2_PLACEMENT_3D ( 'NONE', #152, #54, #120 ) ;
#27 = PRODUCT_DEFINITION ( 'UNKNOWN', '', #144, #48 ) ;
#28 = CYLINDRICAL_SURFACE ( 'NONE', #127, 0.9499999999999996225 ) ;
#29 = DIRECTION ( 'NONE',  ( -3.491481338843133355E-15, 1.224646799147353207E-16, -1.000000000000000000 ) ) ;
#30 = DIRECTION ( 'NONE',  ( 3.491481338843133355E-15, -1.224646799147353207E-16, 1.000000000000000000 ) ) ;
#31 = CARTESIAN_POINT ( 'NONE',  ( 1.316288464743861212E-13, 1.499999999999994005, 37.69999999999999574 ) ) ;
#32 = AXIS2_PLACEMENT_3D ( 'NONE', #46, #1, #151 ) ;
#33 = CARTESIAN_POINT ( 'NONE',  ( 6.633814543801947064E-15, 0.0000000000000000000, 1.899999999999998357 ) ) ;
#34 = ADVANCED_FACE ( 'NONE', ( #7 ), #199, .F. ) ;
#35 = ORIENTED_EDGE ( 'NONE', *, *, #11, .T. ) ;
#36 = APPROVAL_STATUS ( 'not_yet_approved' ) ;
#37 = PERSON_AND_ORGANIZATION ( #95, #5 ) ;
#38 = ORIENTED_EDGE ( 'NONE', *, *, #16, .T. ) ;
#39 = APPLICATION_CONTEXT ( 'configuration controlled 3d designs of mechanical parts and assemblies' ) ;
#40 = EDGE_LOOP ( 'NONE', ( #38 ) ) ;
#41 = PERSON_AND_ORGANIZATION ( #95, #5 ) ;
#42 = DATE_AND_TIME ( #186, #198 ) ;
#43 = CYLINDRICAL_SURFACE ( 'NONE', #45, 1.499999999999996447 ) ;
#44 = CIRCLE ( 'NONE', #205, 1.499999999999996447 ) ;
#45 = AXIS2_PLACEMENT_3D ( 'NONE', #49, #29, #113 ) ;
#46 = CARTESIAN_POINT ( 'NONE',  ( 1.326762908760390423E-13, 8.998558695971069014E-33, 38.00000000000000000 ) ) ;
#47 = PRODUCT_RELATED_PRODUCT_CATEGORY ( 'detail', '', ( #131 ) ) ;
#48 = DESIGN_CONTEXT ( 'detailed design', #39, 'design' ) ;
#49 = CARTESIAN_POINT ( 'NONE',  ( 0.0000000000000000000, 0.0000000000000000000, 0.0000000000000000000 ) ) ;
#50 = PLANE ( 'NONE',  #32 ) ;
#51 =( NAMED_UNIT ( * ) SI_UNIT ( $, .STERADIAN. ) SOLID_ANGLE_UNIT ( ) );
#52 = CC_DESIGN_APPROVAL ( #165, ( #115 ) ) ;
#53 = DIRECTION ( 'NONE',  ( -3.491481338843133355E-15, 1.224646799147353207E-16, -1.000000000000000000 ) ) ;
#54 = DIRECTION ( 'NONE',  ( 3.491481338843133355E-15, -1.224646799147353207E-16, 1.000000000000000000 ) ) ;
#55 = PRODUCT_DEFINITION_SHAPE ( 'NONE', 'NONE',  #27 ) ;
#56 = DIRECTION ( 'NONE',  ( 0.0000000000000000000, 0.0000000000000000000, 1.000000000000000000 ) ) ;
#57 = DIRECTION ( 'NONE',  ( 3.491481338843133355E-15, -0.0000000000000000000, 1.000000000000000000 ) ) ;
#58 = EDGE_LOOP ( 'NONE', ( #162 ) ) ;
#59 = TOROIDAL_SURFACE ( 'NONE', #80, 8.949999999999999289, 8.000000000000000000 ) ;
#60 = PERSON_AND_ORGANIZATION ( #95, #5 ) ;
#61 = FACE_OUTER_BOUND ( 'NONE', #221, .T. ) ;
#62 = APPROVAL_ROLE ( '' ) ;
#63 = ORIENTED_EDGE ( 'NONE', *, *, #11, .F. ) ;
#64 = AXIS2_PLACEMENT_3D ( 'NONE', #33, #153, #155 ) ;
#65 = COORDINATED_UNIVERSAL_TIME_OFFSET ( 1, 0, .AHEAD. ) ;
#66 = EDGE_CURVE ( 'NONE', #118, #118, #174, .T. ) ;
#67 = AXIS2_PLACEMENT_3D ( 'NONE', #9, #53, #134 ) ;
#68 = ORIENTED_EDGE ( 'NONE', *, *, #130, .T. ) ;
#69 = CARTESIAN_POINT ( 'NONE',  ( -1.499999999999979350, 0.0000000000000000000, 4.815047169429676366 ) ) ;
#70 = ADVANCED_FACE ( 'NONE', ( #172, #61 ), #43, .T. ) ;
#71 = DIRECTION ( 'NONE',  ( 1.000000000000000000, 0.0000000000000000000, -3.491481338843133355E-15 ) ) ;
#72 = EDGE_LOOP ( 'NONE', ( #108 ) ) ;
#73 = VERTEX_POINT ( 'NONE', #183 ) ;
#74 = ADVANCED_FACE ( 'NONE', ( #179 ), #50, .F. ) ;
#75 = COORDINATED_UNIVERSAL_TIME_OFFSET ( 1, 0, .AHEAD. ) ;
#76 = EDGE_LOOP ( 'NONE', ( #63 ) ) ;
#77 = DIRECTION ( 'NONE',  ( -3.491481338843133355E-15, 1.224646799147353207E-16, -1.000000000000000000 ) ) ;
#78 = PERSON_AND_ORGANIZATION_ROLE ( 'design_supplier' ) ;
#79 = ORIENTED_EDGE ( 'NONE', *, *, #130, .F. ) ;
#80 = AXIS2_PLACEMENT_3D ( 'NONE', #156, #213, #200 ) ;
#81 = DIRECTION ( 'NONE',  ( -3.491481338843133355E-15, 0.0000000000000000000, -1.000000000000000000 ) ) ;
#82 = DIRECTION ( 'NONE',  ( 1.000000000000000000, 0.0000000000000000000, 0.0000000000000000000 ) ) ;
#83 = FACE_OUTER_BOUND ( 'NONE', #72, .T. ) ;
#84 = FACE_OUTER_BOUND ( 'NONE', #101, .T. ) ;
#85 = CARTESIAN_POINT ( 'NONE',  ( -6.413803915257457113E-31, 2.249659577954772199E-32, -1.836986451539393076E-16 ) ) ;
#86 = CARTESIAN_POINT ( 'NONE',  ( 0.9500000000000060618, 0.0000000000000000000, 1.899999999999995026 ) ) ;
#87 = APPROVAL_ROLE ( '' ) ;
#88 = LOCAL_TIME ( 8, 14, 34.00000000000000000, #110 ) ;
#89 = DATE_AND_TIME ( #171, #146 ) ;
#90 = DATE_AND_TIME ( #164, #91 ) ;
#91 = LOCAL_TIME ( 8, 14, 34.00000000000000000, #187 ) ;
#92 = APPROVAL ( #104, 'UNSPECIFIED' ) ;
#93 = APPROVAL_STATUS ( 'not_yet_approved' ) ;
#94 = AXIS2_PLACEMENT_3D ( 'NONE', #8, #30, #180 ) ;
#95 = PERSON ( 'UNSPECIFIED', 'UNSPECIFIED', 'UNSPECIFIED', ('UNSPECIFIED'), ('UNSPECIFIED'), ('UNSPECIFIED') ) ;
#96 = CC_DESIGN_PERSON_AND_ORGANIZATION_ASSIGNMENT ( #197, #116, ( #131 ) ) ;
#97 = CARTESIAN_POINT ( 'NONE',  ( 1.681164733771314887E-14, 0.0000000000000000000, 4.815047169429671037 ) ) ;
#98 = CARTESIAN_POINT ( 'NONE',  ( 0.0000000000000000000, 0.0000000000000000000, 0.0000000000000000000 ) ) ;
#99 = CC_DESIGN_PERSON_AND_ORGANIZATION_ASSIGNMENT ( #206, #78, ( #144 ) ) ;
#100 = FACE_OUTER_BOUND ( 'NONE', #184, .T. ) ;
#101 = EDGE_LOOP ( 'NONE', ( #35 ) ) ;
#102 = FACE_BOUND ( 'NONE', #209, .T. ) ;
#103 = EDGE_LOOP ( 'NONE', ( #194 ) ) ;
#104 = APPROVAL_STATUS ( 'not_yet_approved' ) ;
#105 = DATE_AND_TIME ( #210, #133 ) ;
#106 = ORIENTED_EDGE ( 'NONE', *, *, #24, .F. ) ;
#107 = CARTESIAN_POINT ( 'NONE',  ( 6.633814543801947064E-15, 0.0000000000000000000, 1.899999999999998357 ) ) ;
#108 = ORIENTED_EDGE ( 'NONE', *, *, #66, .T. ) ;
#109 = APPROVAL_DATE_TIME ( #89, #165 ) ;
#110 = COORDINATED_UNIVERSAL_TIME_OFFSET ( 1, 0, .AHEAD. ) ;
#111 = CLOSED_SHELL ( 'NONE', ( #169, #176, #34 ) ) ;
#112 = DIRECTION ( 'NONE',  ( 3.491481338843133355E-15, -1.224646799147353207E-16, 1.000000000000000000 ) ) ;
#113 = DIRECTION ( 'NONE',  ( 4.275831445896958607E-31, 1.000000000000000000, 1.224646799147352961E-16 ) ) ;
#114 = EDGE_CURVE ( 'NONE', #136, #136, #148, .T. ) ;
#115 = SECURITY_CLASSIFICATION ( '', '', #191 ) ;
#116 = PERSON_AND_ORGANIZATION_ROLE ( 'design_owner' ) ;
#117 = CC_DESIGN_PERSON_AND_ORGANIZATION_ASSIGNMENT ( #145, #222, ( #144 ) ) ;
#118 = VERTEX_POINT ( 'NONE', #181 ) ;
#119 = APPLICATION_PROTOCOL_DEFINITION ( 'international standard', 'config_control_design', 1994, #39 ) ;
#120 = DIRECTION ( 'NONE',  ( -4.275831445896958607E-31, -1.000000000000000000, -1.224646799147353207E-16 ) ) ;
#121 = APPROVAL_DATE_TIME ( #173, #161 ) ;
#122 = FACE_OUTER_BOUND ( 'NONE', #40, .T. ) ;
#123 = COORDINATED_UNIVERSAL_TIME_OFFSET ( 1, 0, .AHEAD. ) ;
#124 = ADVANCED_FACE ( 'NONE', ( #84, #122 ), #59, .F. ) ;
#125 = DIRECTION ( 'NONE',  ( 3.491481338843133355E-15, -0.0000000000000000000, 1.000000000000000000 ) ) ;
#126 = DATE_TIME_ROLE ( 'creation_date' ) ;
#127 = AXIS2_PLACEMENT_3D ( 'NONE', #98, #57, #71 ) ;
#128 = CC_DESIGN_APPROVAL ( #92, ( #144 ) ) ;
#129 = CARTESIAN_POINT ( 'NONE',  ( 0.0000000000000000000, 0.0000000000000000000, 0.0000000000000000000 ) ) ;
#130 = EDGE_CURVE ( 'NONE', #73, #73, #14, .T. ) ;
#131 = PRODUCT ( '64384', '64384', '', ( #216 ) ) ;
#132 = DIRECTION ( 'NONE',  ( -3.491481338843133355E-15, 1.224646799147353207E-16, -1.000000000000000000 ) ) ;
#133 = LOCAL_TIME ( 8, 14, 34.00000000000000000, #75 ) ;
#134 = DIRECTION ( 'NONE',  ( 0.0000000000000000000, 1.000000000000000000, 0.0000000000000000000 ) ) ;
#135 = FACE_OUTER_BOUND ( 'NONE', #203, .T. ) ;
#136 = VERTEX_POINT ( 'NONE', #202 ) ;
#137 = CC_DESIGN_SECURITY_CLASSIFICATION ( #115, ( #144 ) ) ;
#138 = CALENDAR_DATE ( 2021, 10, 11 ) ;
#139 = AXIS2_PLACEMENT_3D ( 'NONE', #107, #223, #177 ) ;
#140 = AXIS2_PLACEMENT_3D ( 'NONE', #85, #112, #157 ) ;
#141 = PERSON_AND_ORGANIZATION_ROLE ( 'creator' ) ;
#142 = APPROVAL_ROLE ( '' ) ;
#143 = CC_DESIGN_DATE_AND_TIME_ASSIGNMENT ( #90, #126, ( #27 ) ) ;
#144 = PRODUCT_DEFINITION_FORMATION_WITH_SPECIFIED_SOURCE ( 'ANY', '', #131, .NOT_KNOWN. ) ;
#145 = PERSON_AND_ORGANIZATION ( #95, #5 ) ;
#146 = LOCAL_TIME ( 8, 14, 34.00000000000000000, #123 ) ;
#147 = DIRECTION ( 'NONE',  ( -1.000000000000000000, 0.0000000000000000000, 3.469446951953622472E-15 ) ) ;
#148 = CIRCLE ( 'NONE', #163, 1.199999999999998845 ) ;
#149 = CARTESIAN_POINT ( 'NONE',  ( 1.316288464743861212E-13, -4.616918432785521081E-15, 37.69999999999999574 ) ) ;
#150 = APPLICATION_PROTOCOL_DEFINITION ( 'international standard', 'config_control_design', 1994, #21 ) ;
#151 = DIRECTION ( 'NONE',  ( 4.275831445896958607E-31, 1.000000000000000000, 1.224646799147353207E-16 ) ) ;
#152 = CARTESIAN_POINT ( 'NONE',  ( 6.633814543801952586E-15, -2.746645503629952126E-16, 1.899999999999999689 ) ) ;
#153 = DIRECTION ( 'NONE',  ( 3.491481338843133355E-15, -0.0000000000000000000, 1.000000000000000000 ) ) ;
#154 = FACE_OUTER_BOUND ( 'NONE', #76, .T. ) ;
#155 = DIRECTION ( 'NONE',  ( 1.000000000000000000, 0.0000000000000000000, -3.423796334164752505E-15 ) ) ;
#156 = CARTESIAN_POINT ( 'NONE',  ( 6.633814543801951008E-15, 0.0000000000000000000, 1.899999999999999245 ) ) ;
#157 = DIRECTION ( 'NONE',  ( -4.275831445896958607E-31, -1.000000000000000000, -1.224646799147353207E-16 ) ) ;
#158 = PERSON_AND_ORGANIZATION ( #95, #5 ) ;
#159 = CONICAL_SURFACE ( 'NONE', #67, 1.199999999999998845, 0.7853981633974450594 ) ;
#160 = ORIENTED_EDGE ( 'NONE', *, *, #114, .T. ) ;
#161 = APPROVAL ( #93, 'UNSPECIFIED' ) ;
#162 = ORIENTED_EDGE ( 'NONE', *, *, #24, .T. ) ;
#163 = AXIS2_PLACEMENT_3D ( 'NONE', #17, #77, #207 ) ;
#164 = CALENDAR_DATE ( 2021, 10, 11 ) ;
#165 = APPROVAL ( #36, 'UNSPECIFIED' ) ;
#166 = DIRECTION ( 'NONE',  ( 0.0000000000000000000, 1.000000000000000000, 0.0000000000000000000 ) ) ;
#167 = PLANE ( 'NONE',  #94 ) ;
#168 = FACE_OUTER_BOUND ( 'NONE', #15, .T. ) ;
#169 = ADVANCED_FACE ( 'NONE', ( #100 ), #167, .T. ) ;
#170 = VERTEX_POINT ( 'NONE', #86 ) ;
#171 = CALENDAR_DATE ( 2021, 10, 11 ) ;
#172 = FACE_OUTER_BOUND ( 'NONE', #58, .T. ) ;
#173 = DATE_AND_TIME ( #138, #88 ) ;
#174 = CIRCLE ( 'NONE', #211, 0.9499999999999999556 ) ;
#175 = DIRECTION ( 'NONE',  ( 1.000000000000000000, 0.0000000000000000000, -3.491481338843133355E-15 ) ) ;
#176 = ADVANCED_FACE ( 'NONE', ( #83, #135 ), #28, .T. ) ;
#177 = DIRECTION ( 'NONE',  ( 1.000000000000000000, 0.0000000000000000000, -3.423796334164752505E-15 ) ) ;
#178 = APPROVAL_PERSON_ORGANIZATION ( #158, #161, #62 ) ;
#179 = FACE_OUTER_BOUND ( 'NONE', #220, .T. ) ;
#180 = DIRECTION ( 'NONE',  ( -4.275831445896958607E-31, -1.000000000000000000, -1.224646799147353207E-16 ) ) ;
#181 = CARTESIAN_POINT ( 'NONE',  ( 0.9499999999999999556, 0.0000000000000000000, -3.316907271900976688E-15 ) ) ;
#182 = VERTEX_POINT ( 'NONE', #31 ) ;
#183 = CARTESIAN_POINT ( 'NONE',  ( 0.9500000000000060618, 0.0000000000000000000, 1.899999999999995026 ) ) ;
#184 = EDGE_LOOP ( 'NONE', ( #68 ) ) ;
#185 = PERSON_AND_ORGANIZATION_ROLE ( 'classification_officer' ) ;
#186 = CALENDAR_DATE ( 2021, 10, 11 ) ;
#187 = COORDINATED_UNIVERSAL_TIME_OFFSET ( 1, 0, .AHEAD. ) ;
#188 = AXIS2_PLACEMENT_3D ( 'NONE', #149, #132, #166 ) ;
#189 = ORIENTED_EDGE ( 'NONE', *, *, #114, .F. ) ;
#190 = ADVANCED_FACE ( 'NONE', ( #168, #102 ), #159, .T. ) ;
#191 = SECURITY_CLASSIFICATION_LEVEL ( 'unclassified' ) ;
#192 =( GEOMETRIC_REPRESENTATION_CONTEXT ( 3 ) GLOBAL_UNCERTAINTY_ASSIGNED_CONTEXT ( ( #4 ) ) GLOBAL_UNIT_ASSIGNED_CONTEXT ( ( #10, #196, #51 ) ) REPRESENTATION_CONTEXT ( 'NONE', 'WORKASPACE' ) );
#193 = ORIENTED_EDGE ( 'NONE', *, *, #16, .F. ) ;
#194 = ORIENTED_EDGE ( 'NONE', *, *, #66, .F. ) ;
#195 = ADVANCED_FACE ( 'NONE', ( #154 ), #219, .F. ) ;
#196 =( NAMED_UNIT ( * ) PLANE_ANGLE_UNIT ( ) SI_UNIT ( $, .RADIAN. ) );
#197 = PERSON_AND_ORGANIZATION ( #95, #5 ) ;
#198 = LOCAL_TIME ( 8, 14, 34.00000000000000000, #65 ) ;
#199 = PLANE ( 'NONE',  #140 ) ;
#200 = DIRECTION ( 'NONE',  ( 1.000000000000000000, 0.0000000000000000000, -3.491481338843133750E-15 ) ) ;
#201 = CC_DESIGN_PERSON_AND_ORGANIZATION_ASSIGNMENT ( #41, #185, ( #115 ) ) ;
#202 = CARTESIAN_POINT ( 'NONE',  ( 1.326762908760390423E-13, 1.199999999999994182, 38.00000000000000000 ) ) ;
#203 = EDGE_LOOP ( 'NONE', ( #79 ) ) ;
#204 = CLOSED_SHELL ( 'NONE', ( #70, #190, #74, #124, #195 ) ) ;
#205 = AXIS2_PLACEMENT_3D ( 'NONE', #97, #81, #147 ) ;
#206 = PERSON_AND_ORGANIZATION ( #95, #5 ) ;
#207 = DIRECTION ( 'NONE',  ( 0.0000000000000000000, 1.000000000000000000, 0.0000000000000000000 ) ) ;
#208 = DATE_TIME_ROLE ( 'classification_date' ) ;
#209 = EDGE_LOOP ( 'NONE', ( #160 ) ) ;
#210 = CALENDAR_DATE ( 2021, 10, 11 ) ;
#211 = AXIS2_PLACEMENT_3D ( 'NONE', #129, #125, #175 ) ;
#212 = CC_DESIGN_PERSON_AND_ORGANIZATION_ASSIGNMENT ( #19, #141, ( #27 ) ) ;
#213 = DIRECTION ( 'NONE',  ( 3.491481338843133355E-15, -0.0000000000000000000, 1.000000000000000000 ) ) ;
#214 = APPROVAL_PERSON_ORGANIZATION ( #60, #165, #142 ) ;
#215 = CC_DESIGN_DATE_AND_TIME_ASSIGNMENT ( #105, #208, ( #115 ) ) ;
#216 = MECHANICAL_CONTEXT ( 'NONE', #21, 'mechanical' ) ;
#217 = VERTEX_POINT ( 'NONE', #69 ) ;
#218 = CIRCLE ( 'NONE', #139, 0.9499999999999995115 ) ;
#219 = PLANE ( 'NONE',  #26 ) ;
#220 = EDGE_LOOP ( 'NONE', ( #189 ) ) ;
#221 = EDGE_LOOP ( 'NONE', ( #193 ) ) ;
#222 = PERSON_AND_ORGANIZATION_ROLE ( 'creator' ) ;
#223 = DIRECTION ( 'NONE',  ( 3.491481338843133355E-15, -0.0000000000000000000, 1.000000000000000000 ) ) ;
ENDSEC;
END-ISO-10303-21;
