ISO-10303-21;
HEADER;
FILE_DESCRIPTION (( 'STEP AP203' ),
    '1' );
FILE_NAME ('64383.step',
    '2021-11-10T07:14:34',
    ( '' ),
    ( '' ),
    'SwSTEP 2.0',
    'SolidWorks 2019',
    '' );
FILE_SCHEMA (( 'CONFIG_CONTROL_DESIGN' ));
ENDSEC;

DATA;
#1 = PERSON_AND_ORGANIZATION_ROLE ( 'creator' ) ;
#2 = SECURITY_CLASSIFICATION_LEVEL ( 'unclassified' ) ;
#3 =( LENGTH_UNIT ( ) NAMED_UNIT ( * ) SI_UNIT ( .MILLI., .METRE. ) );
#4 = SECURITY_CLASSIFICATION ( '', '', #2 ) ;
#5 = CC_DESIGN_DATE_AND_TIME_ASSIGNMENT ( #17, #89, ( #137 ) ) ;
#6 = CIRCLE ( 'NONE', #164, 0.9250000000000004885 ) ;
#7 = APPLICATION_PROTOCOL_DEFINITION ( 'international standard', 'config_control_design', 1994, #134 ) ;
#8 = DIRECTION ( 'NONE',  ( -3.491481338843133355E-15, 1.224646799147353207E-16, -1.000000000000000000 ) ) ;
#9 = CYLINDRICAL_SURFACE ( 'NONE', #130, 0.9250000000000002665 ) ;
#10 = DIRECTION ( 'NONE',  ( 0.0000000000000000000, 1.000000000000000000, 0.0000000000000000000 ) ) ;
#11 = DIRECTION ( 'NONE',  ( 0.0000000000000000000, 1.000000000000000000, 0.0000000000000000000 ) ) ;
#12 = APPROVAL_PERSON_ORGANIZATION ( #116, #53, #200 ) ;
#13 = ORIENTED_EDGE ( 'NONE', *, *, #40, .T. ) ;
#14 = CC_DESIGN_PERSON_AND_ORGANIZATION_ASSIGNMENT ( #199, #41, ( #4 ) ) ;
#15 = APPROVAL_STATUS ( 'not_yet_approved' ) ;
#16 = APPROVAL_DATE_TIME ( #42, #53 ) ;
#17 = DATE_AND_TIME ( #54, #168 ) ;
#18 = CIRCLE ( 'NONE', #204, 0.9250000000000004885 ) ;
#19 = ORGANIZATION ( 'UNSPECIFIED', 'UNSPECIFIED', '' ) ;
#20 = PERSON_AND_ORGANIZATION ( #84, #19 ) ;
#21 = APPROVAL ( #15, 'UNSPECIFIED' ) ;
#22 = DIRECTION ( 'NONE',  ( 0.0000000000000000000, 1.000000000000000000, 0.0000000000000000000 ) ) ;
#23 = FACE_OUTER_BOUND ( 'NONE', #74, .T. ) ;
#24 = ADVANCED_BREP_SHAPE_REPRESENTATION ( '64383', ( #185, #31, #211 ), #70 ) ;
#25 = EDGE_CURVE ( 'NONE', #32, #32, #163, .T. ) ;
#26 = CARTESIAN_POINT ( 'NONE',  ( 1.685739420610720573E-14, 0.0000000000000000000, 4.828149593287739627 ) ) ;
#27 = DIRECTION ( 'NONE',  ( -4.275831445896958607E-31, -1.000000000000000000, -1.224646799147353207E-16 ) ) ;
#28 = AXIS2_PLACEMENT_3D ( 'NONE', #52, #129, #83 ) ;
#29 = CARTESIAN_POINT ( 'NONE',  ( 0.0000000000000000000, 0.0000000000000000000, 0.0000000000000000000 ) ) ;
#30 = PRODUCT_RELATED_PRODUCT_CATEGORY ( 'detail', '', ( #113 ) ) ;
#31 = MANIFOLD_SOLID_BREP ( 'Corps-Déplacer/Copier1[2]', #210 ) ;
#32 = VERTEX_POINT ( 'NONE', #209 ) ;
#33 = EDGE_LOOP ( 'NONE', ( #34 ) ) ;
#34 = ORIENTED_EDGE ( 'NONE', *, *, #25, .F. ) ;
#35 = AXIS2_PLACEMENT_3D ( 'NONE', #170, #8, #22 ) ;
#36 = ORIENTED_EDGE ( 'NONE', *, *, #25, .T. ) ;
#37 = CC_DESIGN_PERSON_AND_ORGANIZATION_ASSIGNMENT ( #212, #97, ( #113 ) ) ;
#38 =( NAMED_UNIT ( * ) PLANE_ANGLE_UNIT ( ) SI_UNIT ( $, .RADIAN. ) );
#39 = CIRCLE ( 'NONE', #182, 0.9250000000000000444 ) ;
#40 = EDGE_CURVE ( 'NONE', #47, #47, #93, .T. ) ;
#41 = PERSON_AND_ORGANIZATION_ROLE ( 'classification_officer' ) ;
#42 = DATE_AND_TIME ( #165, #180 ) ;
#43 = CARTESIAN_POINT ( 'NONE',  ( 1.326762908760390423E-13, -4.653657836759941941E-15, 38.00000000000000000 ) ) ;
#44 = CARTESIAN_POINT ( 'NONE',  ( 6.459240476859795918E-15, 0.0000000000000000000, 1.849999999999999645 ) ) ;
#45 = CC_DESIGN_DATE_AND_TIME_ASSIGNMENT ( #160, #221, ( #4 ) ) ;
#46 = CARTESIAN_POINT ( 'NONE',  ( 0.0000000000000000000, 0.0000000000000000000, 0.0000000000000000000 ) ) ;
#47 = VERTEX_POINT ( 'NONE', #159 ) ;
#48 = PERSON_AND_ORGANIZATION ( #84, #19 ) ;
#49 = CONICAL_SURFACE ( 'NONE', #179, 1.199999999999998845, 0.7853981633974450594 ) ;
#50 = EDGE_LOOP ( 'NONE', ( #107 ) ) ;
#51 = CALENDAR_DATE ( 2021, 10, 11 ) ;
#52 = CARTESIAN_POINT ( 'NONE',  ( 1.326762908760390423E-13, 8.998558695971069014E-33, 38.00000000000000000 ) ) ;
#53 = APPROVAL ( #146, 'UNSPECIFIED' ) ;
#54 = CALENDAR_DATE ( 2021, 10, 11 ) ;
#55 = MECHANICAL_CONTEXT ( 'NONE', #134, 'mechanical' ) ;
#56 = CC_DESIGN_PERSON_AND_ORGANIZATION_ASSIGNMENT ( #145, #167, ( #115 ) ) ;
#57 = CIRCLE ( 'NONE', #184, 1.199999999999998845 ) ;
#58 = EDGE_CURVE ( 'NONE', #131, #131, #6, .T. ) ;
#59 = PERSON_AND_ORGANIZATION ( #84, #19 ) ;
#60 = ADVANCED_FACE ( 'NONE', ( #189, #88 ), #128, .T. ) ;
#61 = COORDINATED_UNIVERSAL_TIME_OFFSET ( 1, 0, .AHEAD. ) ;
#62 = DIRECTION ( 'NONE',  ( 1.000000000000000000, 0.0000000000000000000, -3.516331370223255758E-15 ) ) ;
#63 = FACE_OUTER_BOUND ( 'NONE', #99, .T. ) ;
#64 = CARTESIAN_POINT ( 'NONE',  ( 6.459240476859791974E-15, 0.0000000000000000000, 1.849999999999998535 ) ) ;
#65 = FACE_OUTER_BOUND ( 'NONE', #127, .T. ) ;
#66 = DIRECTION ( 'NONE',  ( -4.275831445896958607E-31, -1.000000000000000000, -1.224646799147353207E-16 ) ) ;
#67 = ADVANCED_FACE ( 'NONE', ( #154 ), #100, .F. ) ;
#68 = EDGE_LOOP ( 'NONE', ( #161 ) ) ;
#69 = DIRECTION ( 'NONE',  ( -4.275831445896958607E-31, -1.000000000000000000, -1.224646799147353207E-16 ) ) ;
#70 =( GEOMETRIC_REPRESENTATION_CONTEXT ( 3 ) GLOBAL_UNCERTAINTY_ASSIGNED_CONTEXT ( ( #98 ) ) GLOBAL_UNIT_ASSIGNED_CONTEXT ( ( #3, #38, #178 ) ) REPRESENTATION_CONTEXT ( 'NONE', 'WORKASPACE' ) );
#71 = CC_DESIGN_APPROVAL ( #53, ( #137 ) ) ;
#72 = DIRECTION ( 'NONE',  ( 3.491481338843133355E-15, -0.0000000000000000000, 1.000000000000000000 ) ) ;
#73 = EDGE_LOOP ( 'NONE', ( #196 ) ) ;
#74 = EDGE_LOOP ( 'NONE', ( #193 ) ) ;
#75 = COORDINATED_UNIVERSAL_TIME_OFFSET ( 1, 0, .AHEAD. ) ;
#76 = CALENDAR_DATE ( 2021, 10, 11 ) ;
#77 = APPLICATION_CONTEXT ( 'configuration controlled 3d designs of mechanical parts and assemblies' ) ;
#78 = ORIENTED_EDGE ( 'NONE', *, *, #150, .F. ) ;
#79 = DESIGN_CONTEXT ( 'detailed design', #77, 'design' ) ;
#80 = VERTEX_POINT ( 'NONE', #117 ) ;
#81 = ADVANCED_FACE ( 'NONE', ( #176, #92 ), #49, .T. ) ;
#82 = APPROVAL_STATUS ( 'not_yet_approved' ) ;
#83 = DIRECTION ( 'NONE',  ( 4.275831445896958607E-31, 1.000000000000000000, 1.224646799147353207E-16 ) ) ;
#84 = PERSON ( 'UNSPECIFIED', 'UNSPECIFIED', 'UNSPECIFIED', ('UNSPECIFIED'), ('UNSPECIFIED'), ('UNSPECIFIED') ) ;
#85 = DIRECTION ( 'NONE',  ( -3.491481338843133355E-15, 0.0000000000000000000, -1.000000000000000000 ) ) ;
#86 = CARTESIAN_POINT ( 'NONE',  ( 6.459240476859791974E-15, 0.0000000000000000000, 1.849999999999998535 ) ) ;
#87 = LOCAL_TIME ( 8, 14, 34.00000000000000000, #166 ) ;
#88 = FACE_OUTER_BOUND ( 'NONE', #133, .T. ) ;
#89 = DATE_TIME_ROLE ( 'creation_date' ) ;
#90 = DIRECTION ( 'NONE',  ( 3.491481338843133355E-15, -1.224646799147353207E-16, 1.000000000000000000 ) ) ;
#91 = CARTESIAN_POINT ( 'NONE',  ( 0.9250000000000069278, 0.0000000000000000000, 1.849999999999995204 ) ) ;
#92 = FACE_BOUND ( 'NONE', #191, .T. ) ;
#93 = CIRCLE ( 'NONE', #114, 1.499999999999996447 ) ;
#94 = AXIS2_PLACEMENT_3D ( 'NONE', #202, #217, #66 ) ;
#95 = AXIS2_PLACEMENT_3D ( 'NONE', #44, #124, #104 ) ;
#96 = ADVANCED_FACE ( 'NONE', ( #63 ), #219, .F. ) ;
#97 = PERSON_AND_ORGANIZATION_ROLE ( 'design_owner' ) ;
#98 = UNCERTAINTY_MEASURE_WITH_UNIT (LENGTH_MEASURE( 1.000000000000000082E-05 ), #3, 'distance_accuracy_value', 'NONE');
#99 = EDGE_LOOP ( 'NONE', ( #195 ) ) ;
#100 = PLANE ( 'NONE',  #151 ) ;
#101 = CC_DESIGN_PERSON_AND_ORGANIZATION_ASSIGNMENT ( #59, #1, ( #137 ) ) ;
#102 = CC_DESIGN_PERSON_AND_ORGANIZATION_ASSIGNMENT ( #187, #171, ( #115 ) ) ;
#103 = CARTESIAN_POINT ( 'NONE',  ( 6.459240476859796707E-15, -2.674365358797584835E-16, 1.850000000000000089 ) ) ;
#104 = DIRECTION ( 'NONE',  ( 1.000000000000000000, 0.0000000000000000000, -3.491481338843133355E-15 ) ) ;
#105 = DIRECTION ( 'NONE',  ( 1.000000000000000000, 0.0000000000000000000, -3.491481338843133355E-15 ) ) ;
#106 = SHAPE_DEFINITION_REPRESENTATION ( #222, #24 ) ;
#107 = ORIENTED_EDGE ( 'NONE', *, *, #58, .F. ) ;
#108 = DIRECTION ( 'NONE',  ( -3.491481338843133355E-15, 1.224646799147353207E-16, -1.000000000000000000 ) ) ;
#109 = EDGE_LOOP ( 'NONE', ( #78 ) ) ;
#110 = CC_DESIGN_APPROVAL ( #123, ( #115 ) ) ;
#111 = ORIENTED_EDGE ( 'NONE', *, *, #150, .T. ) ;
#112 = ORIENTED_EDGE ( 'NONE', *, *, #220, .T. ) ;
#113 = PRODUCT ( '64383', '64383', '', ( #55 ) ) ;
#114 = AXIS2_PLACEMENT_3D ( 'NONE', #26, #85, #136 ) ;
#115 = PRODUCT_DEFINITION_FORMATION_WITH_SPECIFIED_SOURCE ( 'ANY', '', #113, .NOT_KNOWN. ) ;
#116 = PERSON_AND_ORGANIZATION ( #84, #19 ) ;
#117 = CARTESIAN_POINT ( 'NONE',  ( 0.9250000000000069278, 0.0000000000000000000, 1.849999999999995204 ) ) ;
#118 = CC_DESIGN_SECURITY_CLASSIFICATION ( #4, ( #115 ) ) ;
#119 = DIRECTION ( 'NONE',  ( 3.491481338843133355E-15, -0.0000000000000000000, 1.000000000000000000 ) ) ;
#120 = APPROVAL_PERSON_ORGANIZATION ( #48, #21, #218 ) ;
#121 = APPROVAL_DATE_TIME ( #192, #123 ) ;
#122 = DIRECTION ( 'NONE',  ( 3.491481338843133355E-15, -0.0000000000000000000, 1.000000000000000000 ) ) ;
#123 = APPROVAL ( #82, 'UNSPECIFIED' ) ;
#124 = DIRECTION ( 'NONE',  ( 3.491481338843133355E-15, -0.0000000000000000000, 1.000000000000000000 ) ) ;
#125 = ADVANCED_FACE ( 'NONE', ( #216, #158 ), #9, .T. ) ;
#126 = CARTESIAN_POINT ( 'NONE',  ( 0.0000000000000000000, 0.0000000000000000000, 0.0000000000000000000 ) ) ;
#127 = EDGE_LOOP ( 'NONE', ( #13 ) ) ;
#128 = CYLINDRICAL_SURFACE ( 'NONE', #215, 1.499999999999996447 ) ;
#129 = DIRECTION ( 'NONE',  ( -3.491481338843133355E-15, 1.224646799147353207E-16, -1.000000000000000000 ) ) ;
#130 = AXIS2_PLACEMENT_3D ( 'NONE', #126, #122, #190 ) ;
#131 = VERTEX_POINT ( 'NONE', #91 ) ;
#132 = CARTESIAN_POINT ( 'NONE',  ( 1.326762908760390423E-13, 1.199999999999994182, 38.00000000000000000 ) ) ;
#133 = EDGE_LOOP ( 'NONE', ( #203 ) ) ;
#134 = APPLICATION_CONTEXT ( 'configuration controlled 3d designs of mechanical parts and assemblies' ) ;
#135 = CC_DESIGN_APPROVAL ( #21, ( #4 ) ) ;
#136 = DIRECTION ( 'NONE',  ( -1.000000000000000000, 0.0000000000000000000, 3.469446951953622472E-15 ) ) ;
#137 = PRODUCT_DEFINITION ( 'UNKNOWN', '', #115, #79 ) ;
#138 = CLOSED_SHELL ( 'NONE', ( #60, #81, #186, #208, #96 ) ) ;
#139 = DIRECTION ( 'NONE',  ( -3.491481338843133355E-15, 1.224646799147353207E-16, -1.000000000000000000 ) ) ;
#140 = DIRECTION ( 'NONE',  ( 3.491481338843133355E-15, -0.0000000000000000000, 1.000000000000000000 ) ) ;
#141 = COORDINATED_UNIVERSAL_TIME_OFFSET ( 1, 0, .AHEAD. ) ;
#142 = EDGE_CURVE ( 'NONE', #80, #80, #18, .T. ) ;
#143 = FACE_OUTER_BOUND ( 'NONE', #68, .T. ) ;
#144 = EDGE_LOOP ( 'NONE', ( #36 ) ) ;
#145 = PERSON_AND_ORGANIZATION ( #84, #19 ) ;
#146 = APPROVAL_STATUS ( 'not_yet_approved' ) ;
#147 = LOCAL_TIME ( 8, 14, 34.00000000000000000, #141 ) ;
#148 = CARTESIAN_POINT ( 'NONE',  ( 0.9250000000000000444, 0.0000000000000000000, -3.229620238429898354E-15 ) ) ;
#149 = DATE_AND_TIME ( #76, #147 ) ;
#150 = EDGE_CURVE ( 'NONE', #213, #213, #39, .T. ) ;
#151 = AXIS2_PLACEMENT_3D ( 'NONE', #205, #90, #69 ) ;
#152 = PLANE ( 'NONE',  #201 ) ;
#153 = CARTESIAN_POINT ( 'NONE',  ( 0.0000000000000000000, 0.0000000000000000000, 0.0000000000000000000 ) ) ;
#154 = FACE_OUTER_BOUND ( 'NONE', #109, .T. ) ;
#155 = APPROVAL_PERSON_ORGANIZATION ( #20, #123, #157 ) ;
#156 = DIRECTION ( 'NONE',  ( -3.491481338843133355E-15, 1.224646799147353207E-16, -1.000000000000000000 ) ) ;
#157 = APPROVAL_ROLE ( '' ) ;
#158 = FACE_OUTER_BOUND ( 'NONE', #50, .T. ) ;
#159 = CARTESIAN_POINT ( 'NONE',  ( -1.499999999999979350, 0.0000000000000000000, 4.828149593287744956 ) ) ;
#160 = DATE_AND_TIME ( #183, #87 ) ;
#161 = ORIENTED_EDGE ( 'NONE', *, *, #220, .F. ) ;
#162 = EDGE_LOOP ( 'NONE', ( #111 ) ) ;
#163 = CIRCLE ( 'NONE', #35, 1.499999999999998446 ) ;
#164 = AXIS2_PLACEMENT_3D ( 'NONE', #64, #119, #62 ) ;
#165 = CALENDAR_DATE ( 2021, 10, 11 ) ;
#166 = COORDINATED_UNIVERSAL_TIME_OFFSET ( 1, 0, .AHEAD. ) ;
#167 = PERSON_AND_ORGANIZATION_ROLE ( 'design_supplier' ) ;
#168 = LOCAL_TIME ( 8, 14, 34.00000000000000000, #75 ) ;
#169 = DIRECTION ( 'NONE',  ( 4.275831445896958607E-31, 1.000000000000000000, 1.224646799147352961E-16 ) ) ;
#170 = CARTESIAN_POINT ( 'NONE',  ( 1.316288464743861212E-13, -4.616918432785521081E-15, 37.69999999999999574 ) ) ;
#171 = PERSON_AND_ORGANIZATION_ROLE ( 'creator' ) ;
#172 = DIRECTION ( 'NONE',  ( 3.491481338843133355E-15, -1.224646799147353207E-16, 1.000000000000000000 ) ) ;
#173 = COORDINATED_UNIVERSAL_TIME_OFFSET ( 1, 0, .AHEAD. ) ;
#174 = CARTESIAN_POINT ( 'NONE',  ( 1.326762908760390423E-13, -4.653657836759941941E-15, 38.00000000000000000 ) ) ;
#175 = FACE_OUTER_BOUND ( 'NONE', #73, .T. ) ;
#176 = FACE_OUTER_BOUND ( 'NONE', #33, .T. ) ;
#177 = DIRECTION ( 'NONE',  ( 0.0000000000000000000, 0.0000000000000000000, 1.000000000000000000 ) ) ;
#178 =( NAMED_UNIT ( * ) SI_UNIT ( $, .STERADIAN. ) SOLID_ANGLE_UNIT ( ) );
#179 = AXIS2_PLACEMENT_3D ( 'NONE', #43, #156, #11 ) ;
#180 = LOCAL_TIME ( 8, 14, 34.00000000000000000, #61 ) ;
#181 = DIRECTION ( 'NONE',  ( 1.000000000000000000, 0.0000000000000000000, 0.0000000000000000000 ) ) ;
#182 = AXIS2_PLACEMENT_3D ( 'NONE', #29, #140, #105 ) ;
#183 = CALENDAR_DATE ( 2021, 10, 11 ) ;
#184 = AXIS2_PLACEMENT_3D ( 'NONE', #174, #139, #10 ) ;
#185 = MANIFOLD_SOLID_BREP ( 'Corps-Déplacer/Copier1[1]', #138 ) ;
#186 = ADVANCED_FACE ( 'NONE', ( #143 ), #194, .F. ) ;
#187 = PERSON_AND_ORGANIZATION ( #84, #19 ) ;
#188 = DIRECTION ( 'NONE',  ( 1.000000000000000000, 0.0000000000000000000, -3.516331370223255758E-15 ) ) ;
#189 = FACE_OUTER_BOUND ( 'NONE', #144, .T. ) ;
#190 = DIRECTION ( 'NONE',  ( 1.000000000000000000, 0.0000000000000000000, -3.491481338843133355E-15 ) ) ;
#191 = EDGE_LOOP ( 'NONE', ( #112 ) ) ;
#192 = DATE_AND_TIME ( #51, #223 ) ;
#193 = ORIENTED_EDGE ( 'NONE', *, *, #58, .T. ) ;
#194 = PLANE ( 'NONE',  #28 ) ;
#195 = ORIENTED_EDGE ( 'NONE', *, *, #142, .F. ) ;
#196 = ORIENTED_EDGE ( 'NONE', *, *, #142, .T. ) ;
#197 = ADVANCED_FACE ( 'NONE', ( #23 ), #152, .T. ) ;
#198 = APPROVAL_DATE_TIME ( #149, #21 ) ;
#199 = PERSON_AND_ORGANIZATION ( #84, #19 ) ;
#200 = APPROVAL_ROLE ( '' ) ;
#201 = AXIS2_PLACEMENT_3D ( 'NONE', #103, #172, #27 ) ;
#202 = CARTESIAN_POINT ( 'NONE',  ( 6.459240476859796707E-15, -2.674365358797584835E-16, 1.850000000000000089 ) ) ;
#203 = ORIENTED_EDGE ( 'NONE', *, *, #40, .F. ) ;
#204 = AXIS2_PLACEMENT_3D ( 'NONE', #86, #72, #188 ) ;
#205 = CARTESIAN_POINT ( 'NONE',  ( -6.413803915257457113E-31, 2.249659577954772199E-32, -1.836986451539393076E-16 ) ) ;
#206 = VERTEX_POINT ( 'NONE', #132 ) ;
#207 = TOROIDAL_SURFACE ( 'NONE', #95, 8.925000000000000711, 8.000000000000000000 ) ;
#208 = ADVANCED_FACE ( 'NONE', ( #175, #65 ), #207, .F. ) ;
#209 = CARTESIAN_POINT ( 'NONE',  ( 1.316288464743861212E-13, 1.499999999999994005, 37.69999999999999574 ) ) ;
#210 = CLOSED_SHELL ( 'NONE', ( #197, #125, #67 ) ) ;
#211 = AXIS2_PLACEMENT_3D ( 'NONE', #153, #177, #181 ) ;
#212 = PERSON_AND_ORGANIZATION ( #84, #19 ) ;
#213 = VERTEX_POINT ( 'NONE', #148 ) ;
#214 = APPLICATION_PROTOCOL_DEFINITION ( 'international standard', 'config_control_design', 1994, #77 ) ;
#215 = AXIS2_PLACEMENT_3D ( 'NONE', #46, #108, #169 ) ;
#216 = FACE_OUTER_BOUND ( 'NONE', #162, .T. ) ;
#217 = DIRECTION ( 'NONE',  ( 3.491481338843133355E-15, -1.224646799147353207E-16, 1.000000000000000000 ) ) ;
#218 = APPROVAL_ROLE ( '' ) ;
#219 = PLANE ( 'NONE',  #94 ) ;
#220 = EDGE_CURVE ( 'NONE', #206, #206, #57, .T. ) ;
#221 = DATE_TIME_ROLE ( 'classification_date' ) ;
#222 = PRODUCT_DEFINITION_SHAPE ( 'NONE', 'NONE',  #137 ) ;
#223 = LOCAL_TIME ( 8, 14, 34.00000000000000000, #173 ) ;
ENDSEC;
END-ISO-10303-21;
