ISO-10303-21;
HEADER;
FILE_DESCRIPTION (( 'STEP AP203' ),
    '1' );
FILE_NAME ('64382.step',
    '2021-11-10T07:14:33',
    ( '' ),
    ( '' ),
    'SwSTEP 2.0',
    'SolidWorks 2019',
    '' );
FILE_SCHEMA (( 'CONFIG_CONTROL_DESIGN' ));
ENDSEC;

DATA;
#1 = ORIENTED_EDGE ( 'NONE', *, *, #137, .F. ) ;
#2 = ORIENTED_EDGE ( 'NONE', *, *, #21, .T. ) ;
#3 = CLOSED_SHELL ( 'NONE', ( #25, #165, #207, #29, #142 ) ) ;
#4 = PLANE ( 'NONE',  #73 ) ;
#5 = AXIS2_PLACEMENT_3D ( 'NONE', #95, #116, #219 ) ;
#6 = PERSON_AND_ORGANIZATION_ROLE ( 'design_owner' ) ;
#7 = CALENDAR_DATE ( 2021, 10, 11 ) ;
#8 = PERSON_AND_ORGANIZATION ( #67, #68 ) ;
#9 = AXIS2_PLACEMENT_3D ( 'NONE', #195, #112, #198 ) ;
#10 = COORDINATED_UNIVERSAL_TIME_OFFSET ( 1, 0, .AHEAD. ) ;
#11 = EDGE_LOOP ( 'NONE', ( #187 ) ) ;
#12 = ORIENTED_EDGE ( 'NONE', *, *, #99, .T. ) ;
#13 = PLANE ( 'NONE',  #59 ) ;
#14 = CC_DESIGN_PERSON_AND_ORGANIZATION_ASSIGNMENT ( #131, #107, ( #210 ) ) ;
#15 = DIRECTION ( 'NONE',  ( 4.275831445896958607E-31, 1.000000000000000000, 1.224646799147352961E-16 ) ) ;
#16 = EDGE_LOOP ( 'NONE', ( #186 ) ) ;
#17 = DIRECTION ( 'NONE',  ( 1.000000000000000000, 0.0000000000000000000, -3.491481338843133355E-15 ) ) ;
#18 = AXIS2_PLACEMENT_3D ( 'NONE', #223, #34, #203 ) ;
#19 = FACE_OUTER_BOUND ( 'NONE', #138, .T. ) ;
#20 = EDGE_CURVE ( 'NONE', #172, #172, #77, .T. ) ;
#21 = EDGE_CURVE ( 'NONE', #173, #173, #36, .T. ) ;
#22 = DIRECTION ( 'NONE',  ( 1.000000000000000000, 0.0000000000000000000, 0.0000000000000000000 ) ) ;
#23 = CC_DESIGN_SECURITY_CLASSIFICATION ( #210, ( #56 ) ) ;
#24 = APPROVAL_ROLE ( '' ) ;
#25 = ADVANCED_FACE ( 'NONE', ( #47, #113 ), #28, .T. ) ;
#26 = COORDINATED_UNIVERSAL_TIME_OFFSET ( 1, 0, .AHEAD. ) ;
#27 = DATE_AND_TIME ( #7, #158 ) ;
#28 = CYLINDRICAL_SURFACE ( 'NONE', #98, 1.499999999999996447 ) ;
#29 = ADVANCED_FACE ( 'NONE', ( #115, #66 ), #49, .F. ) ;
#30 = DIRECTION ( 'NONE',  ( 1.000000000000000000, 0.0000000000000000000, -3.491481338843133355E-15 ) ) ;
#31 = ORIENTED_EDGE ( 'NONE', *, *, #152, .T. ) ;
#32 = CARTESIAN_POINT ( 'NONE',  ( -6.413803915257457113E-31, 2.249659577954772199E-32, -1.836986451539393076E-16 ) ) ;
#33 = ADVANCED_BREP_SHAPE_REPRESENTATION ( '64382', ( #167, #92, #191 ), #163 ) ;
#34 = DIRECTION ( 'NONE',  ( -3.491481338843133355E-15, 0.0000000000000000000, -1.000000000000000000 ) ) ;
#35 = CC_DESIGN_PERSON_AND_ORGANIZATION_ASSIGNMENT ( #164, #109, ( #123 ) ) ;
#36 = CIRCLE ( 'NONE', #9, 0.8999999999999998002 ) ;
#37 = DIRECTION ( 'NONE',  ( -3.491481338843133355E-15, 1.224646799147353207E-16, -1.000000000000000000 ) ) ;
#38 = DATE_TIME_ROLE ( 'classification_date' ) ;
#39 = CARTESIAN_POINT ( 'NONE',  ( 0.0000000000000000000, 0.0000000000000000000, 0.0000000000000000000 ) ) ;
#40 = VERTEX_POINT ( 'NONE', #108 ) ;
#41 = CIRCLE ( 'NONE', #125, 0.9000000000000000222 ) ;
#42 = PERSON_AND_ORGANIZATION_ROLE ( 'creator' ) ;
#43 = APPROVAL_STATUS ( 'not_yet_approved' ) ;
#44 = PERSON_AND_ORGANIZATION ( #67, #68 ) ;
#45 = VERTEX_POINT ( 'NONE', #86 ) ;
#46 = CC_DESIGN_APPROVAL ( #176, ( #56 ) ) ;
#47 = FACE_OUTER_BOUND ( 'NONE', #11, .T. ) ;
#48 = DIRECTION ( 'NONE',  ( 1.000000000000000000, 0.0000000000000000000, -3.373073425510458853E-15 ) ) ;
#49 = TOROIDAL_SURFACE ( 'NONE', #5, 8.900000000000000355, 8.000000000000000000 ) ;
#50 = EDGE_LOOP ( 'NONE', ( #133 ) ) ;
#51 = EDGE_LOOP ( 'NONE', ( #1 ) ) ;
#52 = DIRECTION ( 'NONE',  ( -3.491481338843133355E-15, 1.224646799147353207E-16, -1.000000000000000000 ) ) ;
#53 = DESIGN_CONTEXT ( 'detailed design', #60, 'design' ) ;
#54 = FACE_OUTER_BOUND ( 'NONE', #16, .T. ) ;
#55 = CC_DESIGN_PERSON_AND_ORGANIZATION_ASSIGNMENT ( #8, #42, ( #56 ) ) ;
#56 = PRODUCT_DEFINITION_FORMATION_WITH_SPECIFIED_SOURCE ( 'ANY', '', #114, .NOT_KNOWN. ) ;
#57 = MECHANICAL_CONTEXT ( 'NONE', #201, 'mechanical' ) ;
#58 = CALENDAR_DATE ( 2021, 10, 11 ) ;
#59 = AXIS2_PLACEMENT_3D ( 'NONE', #65, #200, #182 ) ;
#60 = APPLICATION_CONTEXT ( 'configuration controlled 3d designs of mechanical parts and assemblies' ) ;
#61 = SHAPE_DEFINITION_REPRESENTATION ( #130, #33 ) ;
#62 =( NAMED_UNIT ( * ) PLANE_ANGLE_UNIT ( ) SI_UNIT ( $, .RADIAN. ) );
#63 = LOCAL_TIME ( 8, 14, 33.00000000000000000, #211 ) ;
#64 = ADVANCED_FACE ( 'NONE', ( #168 ), #13, .T. ) ;
#65 = CARTESIAN_POINT ( 'NONE',  ( 6.284666409917640040E-15, -2.602085213965217544E-16, 1.800000000000000044 ) ) ;
#66 = FACE_OUTER_BOUND ( 'NONE', #208, .T. ) ;
#67 = PERSON ( 'UNSPECIFIED', 'UNSPECIFIED', 'UNSPECIFIED', ('UNSPECIFIED'), ('UNSPECIFIED'), ('UNSPECIFIED') ) ;
#68 = ORGANIZATION ( 'UNSPECIFIED', 'UNSPECIFIED', '' ) ;
#69 = CARTESIAN_POINT ( 'NONE',  ( 6.284666409917640040E-15, -2.602085213965217544E-16, 1.800000000000000044 ) ) ;
#70 = CARTESIAN_POINT ( 'NONE',  ( 1.316288464743861212E-13, 1.499999999999994005, 37.69999999999999574 ) ) ;
#71 = AXIS2_PLACEMENT_3D ( 'NONE', #32, #97, #170 ) ;
#72 = CARTESIAN_POINT ( 'NONE',  ( 1.326762908760390423E-13, 8.998558695971069014E-33, 38.00000000000000000 ) ) ;
#73 = AXIS2_PLACEMENT_3D ( 'NONE', #72, #37, #102 ) ;
#74 = APPROVAL_DATE_TIME ( #214, #117 ) ;
#75 = DIRECTION ( 'NONE',  ( 0.0000000000000000000, 1.000000000000000000, 0.0000000000000000000 ) ) ;
#76 = CARTESIAN_POINT ( 'NONE',  ( 1.316288464743861212E-13, -4.616918432785521081E-15, 37.69999999999999574 ) ) ;
#77 = CIRCLE ( 'NONE', #82, 1.499999999999998446 ) ;
#78 = DIRECTION ( 'NONE',  ( -3.491481338843133355E-15, 1.224646799147353207E-16, -1.000000000000000000 ) ) ;
#79 = DIRECTION ( 'NONE',  ( 3.491481338843133355E-15, -0.0000000000000000000, 1.000000000000000000 ) ) ;
#80 = EDGE_LOOP ( 'NONE', ( #118 ) ) ;
#81 = PLANE ( 'NONE',  #84 ) ;
#82 = AXIS2_PLACEMENT_3D ( 'NONE', #76, #149, #75 ) ;
#83 = PLANE ( 'NONE',  #71 ) ;
#84 = AXIS2_PLACEMENT_3D ( 'NONE', #69, #139, #96 ) ;
#85 = CIRCLE ( 'NONE', #206, 0.8999999999999998002 ) ;
#86 = CARTESIAN_POINT ( 'NONE',  ( 1.326762908760390423E-13, 1.199999999999994182, 38.00000000000000000 ) ) ;
#87 = CALENDAR_DATE ( 2021, 10, 11 ) ;
#88 = EDGE_CURVE ( 'NONE', #216, #216, #85, .T. ) ;
#89 = DATE_AND_TIME ( #194, #94 ) ;
#90 = VERTEX_POINT ( 'NONE', #161 ) ;
#91 = ORIENTED_EDGE ( 'NONE', *, *, #20, .F. ) ;
#92 = MANIFOLD_SOLID_BREP ( 'Corps-Déplacer/Copier1[2]', #146 ) ;
#93 = FACE_OUTER_BOUND ( 'NONE', #202, .T. ) ;
#94 = LOCAL_TIME ( 8, 14, 33.00000000000000000, #10 ) ;
#95 = CARTESIAN_POINT ( 'NONE',  ( 6.284666409917638462E-15, 0.0000000000000000000, 1.799999999999999600 ) ) ;
#96 = DIRECTION ( 'NONE',  ( -4.275831445896958607E-31, -1.000000000000000000, -1.224646799147353207E-16 ) ) ;
#97 = DIRECTION ( 'NONE',  ( 3.491481338843133355E-15, -1.224646799147353207E-16, 1.000000000000000000 ) ) ;
#98 = AXIS2_PLACEMENT_3D ( 'NONE', #134, #78, #15 ) ;
#99 = EDGE_CURVE ( 'NONE', #40, #40, #41, .T. ) ;
#100 = ADVANCED_FACE ( 'NONE', ( #181, #93 ), #151, .T. ) ;
#101 = AXIS2_PLACEMENT_3D ( 'NONE', #140, #184, #204 ) ;
#102 = DIRECTION ( 'NONE',  ( 4.275831445896958607E-31, 1.000000000000000000, 1.224646799147353207E-16 ) ) ;
#103 = PERSON_AND_ORGANIZATION ( #67, #68 ) ;
#104 = DIRECTION ( 'NONE',  ( 0.0000000000000000000, 0.0000000000000000000, 1.000000000000000000 ) ) ;
#105 = SECURITY_CLASSIFICATION_LEVEL ( 'unclassified' ) ;
#106 = APPROVAL_DATE_TIME ( #127, #143 ) ;
#107 = PERSON_AND_ORGANIZATION_ROLE ( 'classification_officer' ) ;
#108 = CARTESIAN_POINT ( 'NONE',  ( 0.9000000000000000222, 0.0000000000000000000, -3.142333204958820020E-15 ) ) ;
#109 = PERSON_AND_ORGANIZATION_ROLE ( 'creator' ) ;
#110 = PERSON_AND_ORGANIZATION ( #67, #68 ) ;
#111 = APPROVAL_PERSON_ORGANIZATION ( #128, #117, #160 ) ;
#112 = DIRECTION ( 'NONE',  ( 3.491481338843133355E-15, -0.0000000000000000000, 1.000000000000000000 ) ) ;
#113 = FACE_OUTER_BOUND ( 'NONE', #51, .T. ) ;
#114 = PRODUCT ( '64382', '64382', '', ( #57 ) ) ;
#115 = FACE_OUTER_BOUND ( 'NONE', #197, .T. ) ;
#116 = DIRECTION ( 'NONE',  ( 3.491481338843133355E-15, -0.0000000000000000000, 1.000000000000000000 ) ) ;
#117 = APPROVAL ( #192, 'UNSPECIFIED' ) ;
#118 = ORIENTED_EDGE ( 'NONE', *, *, #152, .F. ) ;
#119 = DIRECTION ( 'NONE',  ( 0.0000000000000000000, 1.000000000000000000, 0.0000000000000000000 ) ) ;
#120 = CC_DESIGN_APPROVAL ( #117, ( #210 ) ) ;
#121 = EDGE_LOOP ( 'NONE', ( #31 ) ) ;
#122 = ORIENTED_EDGE ( 'NONE', *, *, #88, .F. ) ;
#123 = PRODUCT_DEFINITION ( 'UNKNOWN', '', #56, #53 ) ;
#124 = CONICAL_SURFACE ( 'NONE', #101, 1.199999999999998845, 0.7853981633974450594 ) ;
#125 = AXIS2_PLACEMENT_3D ( 'NONE', #150, #218, #30 ) ;
#126 = COORDINATED_UNIVERSAL_TIME_OFFSET ( 1, 0, .AHEAD. ) ;
#127 = DATE_AND_TIME ( #58, #63 ) ;
#128 = PERSON_AND_ORGANIZATION ( #67, #68 ) ;
#129 = PERSON_AND_ORGANIZATION ( #67, #68 ) ;
#130 = PRODUCT_DEFINITION_SHAPE ( 'NONE', 'NONE',  #123 ) ;
#131 = PERSON_AND_ORGANIZATION ( #67, #68 ) ;
#132 = CIRCLE ( 'NONE', #213, 1.199999999999998845 ) ;
#133 = ORIENTED_EDGE ( 'NONE', *, *, #88, .T. ) ;
#134 = CARTESIAN_POINT ( 'NONE',  ( 0.0000000000000000000, 0.0000000000000000000, 0.0000000000000000000 ) ) ;
#135 = PRODUCT_RELATED_PRODUCT_CATEGORY ( 'detail', '', ( #114 ) ) ;
#136 = CARTESIAN_POINT ( 'NONE',  ( 0.0000000000000000000, 0.0000000000000000000, 0.0000000000000000000 ) ) ;
#137 = EDGE_CURVE ( 'NONE', #90, #90, #185, .T. ) ;
#138 = EDGE_LOOP ( 'NONE', ( #91 ) ) ;
#139 = DIRECTION ( 'NONE',  ( 3.491481338843133355E-15, -1.224646799147353207E-16, 1.000000000000000000 ) ) ;
#140 = CARTESIAN_POINT ( 'NONE',  ( 1.326762908760390423E-13, -4.653657836759941941E-15, 38.00000000000000000 ) ) ;
#141 = AXIS2_PLACEMENT_3D ( 'NONE', #136, #222, #17 ) ;
#142 = ADVANCED_FACE ( 'NONE', ( #169 ), #81, .F. ) ;
#143 = APPROVAL ( #43, 'UNSPECIFIED' ) ;
#144 = APPROVAL_ROLE ( '' ) ;
#145 = CARTESIAN_POINT ( 'NONE',  ( 0.9000000000000060174, 0.0000000000000000000, 1.799999999999995381 ) ) ;
#146 = CLOSED_SHELL ( 'NONE', ( #64, #100, #166 ) ) ;
#147 =( LENGTH_UNIT ( ) NAMED_UNIT ( * ) SI_UNIT ( .MILLI., .METRE. ) );
#148 = APPLICATION_PROTOCOL_DEFINITION ( 'international standard', 'config_control_design', 1994, #60 ) ;
#149 = DIRECTION ( 'NONE',  ( -3.491481338843133355E-15, 1.224646799147353207E-16, -1.000000000000000000 ) ) ;
#150 = CARTESIAN_POINT ( 'NONE',  ( 0.0000000000000000000, 0.0000000000000000000, 0.0000000000000000000 ) ) ;
#151 = CYLINDRICAL_SURFACE ( 'NONE', #141, 0.8999999999999999112 ) ;
#152 = EDGE_CURVE ( 'NONE', #45, #45, #132, .T. ) ;
#153 = CARTESIAN_POINT ( 'NONE',  ( 1.326762908760390423E-13, -4.653657836759941941E-15, 38.00000000000000000 ) ) ;
#154 = APPROVAL_PERSON_ORGANIZATION ( #44, #143, #144 ) ;
#155 = FACE_BOUND ( 'NONE', #121, .T. ) ;
#156 = LOCAL_TIME ( 8, 14, 33.00000000000000000, #26 ) ;
#157 = CC_DESIGN_PERSON_AND_ORGANIZATION_ASSIGNMENT ( #110, #6, ( #114 ) ) ;
#158 = LOCAL_TIME ( 8, 14, 33.00000000000000000, #159 ) ;
#159 = COORDINATED_UNIVERSAL_TIME_OFFSET ( 1, 0, .AHEAD. ) ;
#160 = APPROVAL_ROLE ( '' ) ;
#161 = CARTESIAN_POINT ( 'NONE',  ( -1.499999999999979350, 0.0000000000000000000, 4.839736830714127969 ) ) ;
#162 = CALENDAR_DATE ( 2021, 10, 11 ) ;
#163 =( GEOMETRIC_REPRESENTATION_CONTEXT ( 3 ) GLOBAL_UNCERTAINTY_ASSIGNED_CONTEXT ( ( #205 ) ) GLOBAL_UNIT_ASSIGNED_CONTEXT ( ( #147, #62, #180 ) ) REPRESENTATION_CONTEXT ( 'NONE', 'WORKASPACE' ) );
#164 = PERSON_AND_ORGANIZATION ( #67, #68 ) ;
#165 = ADVANCED_FACE ( 'NONE', ( #19, #155 ), #124, .T. ) ;
#166 = ADVANCED_FACE ( 'NONE', ( #54 ), #83, .F. ) ;
#167 = MANIFOLD_SOLID_BREP ( 'Corps-Déplacer/Copier1[1]', #3 ) ;
#168 = FACE_OUTER_BOUND ( 'NONE', #50, .T. ) ;
#169 = FACE_OUTER_BOUND ( 'NONE', #178, .T. ) ;
#170 = DIRECTION ( 'NONE',  ( -4.275831445896958607E-31, -1.000000000000000000, -1.224646799147353207E-16 ) ) ;
#171 = ORIENTED_EDGE ( 'NONE', *, *, #21, .F. ) ;
#172 = VERTEX_POINT ( 'NONE', #70 ) ;
#173 = VERTEX_POINT ( 'NONE', #188 ) ;
#174 = APPROVAL_STATUS ( 'not_yet_approved' ) ;
#175 = DATE_AND_TIME ( #162, #217 ) ;
#176 = APPROVAL ( #174, 'UNSPECIFIED' ) ;
#177 = APPLICATION_PROTOCOL_DEFINITION ( 'international standard', 'config_control_design', 1994, #201 ) ;
#178 = EDGE_LOOP ( 'NONE', ( #171 ) ) ;
#179 = APPROVAL_PERSON_ORGANIZATION ( #129, #176, #24 ) ;
#180 =( NAMED_UNIT ( * ) SI_UNIT ( $, .STERADIAN. ) SOLID_ANGLE_UNIT ( ) );
#181 = FACE_OUTER_BOUND ( 'NONE', #183, .T. ) ;
#182 = DIRECTION ( 'NONE',  ( -4.275831445896958607E-31, -1.000000000000000000, -1.224646799147353207E-16 ) ) ;
#183 = EDGE_LOOP ( 'NONE', ( #12 ) ) ;
#184 = DIRECTION ( 'NONE',  ( -3.491481338843133355E-15, 1.224646799147353207E-16, -1.000000000000000000 ) ) ;
#185 = CIRCLE ( 'NONE', #18, 1.499999999999996447 ) ;
#186 = ORIENTED_EDGE ( 'NONE', *, *, #99, .F. ) ;
#187 = ORIENTED_EDGE ( 'NONE', *, *, #20, .T. ) ;
#188 = CARTESIAN_POINT ( 'NONE',  ( 0.9000000000000060174, 0.0000000000000000000, 1.799999999999995381 ) ) ;
#189 = PERSON_AND_ORGANIZATION_ROLE ( 'design_supplier' ) ;
#190 = DATE_TIME_ROLE ( 'creation_date' ) ;
#191 = AXIS2_PLACEMENT_3D ( 'NONE', #39, #104, #22 ) ;
#192 = APPROVAL_STATUS ( 'not_yet_approved' ) ;
#193 = CC_DESIGN_PERSON_AND_ORGANIZATION_ASSIGNMENT ( #103, #189, ( #56 ) ) ;
#194 = CALENDAR_DATE ( 2021, 10, 11 ) ;
#195 = CARTESIAN_POINT ( 'NONE',  ( 6.284666409917634517E-15, 0.0000000000000000000, 1.799999999999998490 ) ) ;
#196 = CC_DESIGN_APPROVAL ( #143, ( #123 ) ) ;
#197 = EDGE_LOOP ( 'NONE', ( #2 ) ) ;
#198 = DIRECTION ( 'NONE',  ( 1.000000000000000000, 0.0000000000000000000, -3.373073425510458853E-15 ) ) ;
#199 = CARTESIAN_POINT ( 'NONE',  ( 6.284666409917634517E-15, 0.0000000000000000000, 1.799999999999998490 ) ) ;
#200 = DIRECTION ( 'NONE',  ( 3.491481338843133355E-15, -1.224646799147353207E-16, 1.000000000000000000 ) ) ;
#201 = APPLICATION_CONTEXT ( 'configuration controlled 3d designs of mechanical parts and assemblies' ) ;
#202 = EDGE_LOOP ( 'NONE', ( #122 ) ) ;
#203 = DIRECTION ( 'NONE',  ( -1.000000000000000000, 0.0000000000000000000, 3.469446951953622472E-15 ) ) ;
#204 = DIRECTION ( 'NONE',  ( 0.0000000000000000000, 1.000000000000000000, 0.0000000000000000000 ) ) ;
#205 = UNCERTAINTY_MEASURE_WITH_UNIT (LENGTH_MEASURE( 1.000000000000000082E-05 ), #147, 'distance_accuracy_value', 'NONE');
#206 = AXIS2_PLACEMENT_3D ( 'NONE', #199, #79, #48 ) ;
#207 = ADVANCED_FACE ( 'NONE', ( #209 ), #4, .F. ) ;
#208 = EDGE_LOOP ( 'NONE', ( #220 ) ) ;
#209 = FACE_OUTER_BOUND ( 'NONE', #80, .T. ) ;
#210 = SECURITY_CLASSIFICATION ( '', '', #105 ) ;
#211 = COORDINATED_UNIVERSAL_TIME_OFFSET ( 1, 0, .AHEAD. ) ;
#212 = CC_DESIGN_DATE_AND_TIME_ASSIGNMENT ( #89, #190, ( #123 ) ) ;
#213 = AXIS2_PLACEMENT_3D ( 'NONE', #153, #52, #119 ) ;
#214 = DATE_AND_TIME ( #87, #156 ) ;
#215 = APPROVAL_DATE_TIME ( #27, #176 ) ;
#216 = VERTEX_POINT ( 'NONE', #145 ) ;
#217 = LOCAL_TIME ( 8, 14, 33.00000000000000000, #126 ) ;
#218 = DIRECTION ( 'NONE',  ( 3.491481338843133355E-15, -0.0000000000000000000, 1.000000000000000000 ) ) ;
#219 = DIRECTION ( 'NONE',  ( 1.000000000000000000, 0.0000000000000000000, -3.491481338843133750E-15 ) ) ;
#220 = ORIENTED_EDGE ( 'NONE', *, *, #137, .T. ) ;
#221 = CC_DESIGN_DATE_AND_TIME_ASSIGNMENT ( #175, #38, ( #210 ) ) ;
#222 = DIRECTION ( 'NONE',  ( 3.491481338843133355E-15, -0.0000000000000000000, 1.000000000000000000 ) ) ;
#223 = CARTESIAN_POINT ( 'NONE',  ( 1.689785082935016764E-14, 0.0000000000000000000, 4.839736830714122640 ) ) ;
ENDSEC;
END-ISO-10303-21;
