ISO-10303-21;
HEADER;
FILE_DESCRIPTION (( 'STEP AP203' ),
    '1' );
FILE_NAME ('64381.step',
    '2021-11-10T07:14:33',
    ( '' ),
    ( '' ),
    'SwSTEP 2.0',
    'SolidWorks 2019',
    '' );
FILE_SCHEMA (( 'CONFIG_CONTROL_DESIGN' ));
ENDSEC;

DATA;
#1 = ORIENTED_EDGE ( 'NONE', *, *, #30, .T. ) ;
#2 = ORGANIZATION ( 'UNSPECIFIED', 'UNSPECIFIED', '' ) ;
#3 = ORIENTED_EDGE ( 'NONE', *, *, #21, .F. ) ;
#4 = SECURITY_CLASSIFICATION_LEVEL ( 'unclassified' ) ;
#5 = CARTESIAN_POINT ( 'NONE',  ( 6.110092342975481005E-15, 0.0000000000000000000, 1.749999999999999334 ) ) ;
#6 = LOCAL_TIME ( 8, 14, 33.00000000000000000, #204 ) ;
#7 = DIRECTION ( 'NONE',  ( 0.0000000000000000000, 0.0000000000000000000, 1.000000000000000000 ) ) ;
#8 = APPROVAL_STATUS ( 'not_yet_approved' ) ;
#9 = CARTESIAN_POINT ( 'NONE',  ( 0.0000000000000000000, 0.0000000000000000000, 0.0000000000000000000 ) ) ;
#10 = PERSON_AND_ORGANIZATION ( #37, #2 ) ;
#11 =( GEOMETRIC_REPRESENTATION_CONTEXT ( 3 ) GLOBAL_UNCERTAINTY_ASSIGNED_CONTEXT ( ( #35 ) ) GLOBAL_UNIT_ASSIGNED_CONTEXT ( ( #112, #75, #189 ) ) REPRESENTATION_CONTEXT ( 'NONE', 'WORKASPACE' ) );
#12 = ORIENTED_EDGE ( 'NONE', *, *, #105, .T. ) ;
#13 = DIRECTION ( 'NONE',  ( -3.491481338843133355E-15, 1.224646799147353207E-16, -1.000000000000000000 ) ) ;
#14 = CARTESIAN_POINT ( 'NONE',  ( 1.326762908760390423E-13, 8.998558695971069014E-33, 38.00000000000000000 ) ) ;
#15 = EDGE_LOOP ( 'NONE', ( #96 ) ) ;
#16 = DIRECTION ( 'NONE',  ( 4.275831445896958607E-31, 1.000000000000000000, 1.224646799147352961E-16 ) ) ;
#17 = ORIENTED_EDGE ( 'NONE', *, *, #223, .T. ) ;
#18 = FACE_BOUND ( 'NONE', #219, .T. ) ;
#19 = EDGE_LOOP ( 'NONE', ( #154 ) ) ;
#20 = CIRCLE ( 'NONE', #174, 1.199999999999998845 ) ;
#21 = EDGE_CURVE ( 'NONE', #53, #53, #20, .T. ) ;
#22 = CALENDAR_DATE ( 2021, 10, 11 ) ;
#23 = ADVANCED_FACE ( 'NONE', ( #115 ), #61, .T. ) ;
#24 = ADVANCED_FACE ( 'NONE', ( #117 ), #29, .F. ) ;
#25 = VERTEX_POINT ( 'NONE', #187 ) ;
#26 = APPLICATION_CONTEXT ( 'configuration controlled 3d designs of mechanical parts and assemblies' ) ;
#27 = DIRECTION ( 'NONE',  ( 1.000000000000000000, 0.0000000000000000000, 0.0000000000000000000 ) ) ;
#28 = AXIS2_PLACEMENT_3D ( 'NONE', #119, #65, #180 ) ;
#29 = PLANE ( 'NONE',  #184 ) ;
#30 = EDGE_CURVE ( 'NONE', #95, #95, #138, .T. ) ;
#31 = DIRECTION ( 'NONE',  ( 3.491481338843133355E-15, -1.224646799147353207E-16, 1.000000000000000000 ) ) ;
#32 = FACE_OUTER_BOUND ( 'NONE', #87, .T. ) ;
#33 = LOCAL_TIME ( 8, 14, 33.00000000000000000, #74 ) ;
#34 = FACE_OUTER_BOUND ( 'NONE', #176, .T. ) ;
#35 = UNCERTAINTY_MEASURE_WITH_UNIT (LENGTH_MEASURE( 1.000000000000000082E-05 ), #112, 'distance_accuracy_value', 'NONE');
#36 = ORIENTED_EDGE ( 'NONE', *, *, #123, .T. ) ;
#37 = PERSON ( 'UNSPECIFIED', 'UNSPECIFIED', 'UNSPECIFIED', ('UNSPECIFIED'), ('UNSPECIFIED'), ('UNSPECIFIED') ) ;
#38 = DATE_TIME_ROLE ( 'classification_date' ) ;
#39 = APPROVAL_PERSON_ORGANIZATION ( #10, #63, #113 ) ;
#40 = DIRECTION ( 'NONE',  ( 1.000000000000000000, 0.0000000000000000000, -3.491481338843133355E-15 ) ) ;
#41 = CC_DESIGN_PERSON_AND_ORGANIZATION_ASSIGNMENT ( #45, #58, ( #188 ) ) ;
#42 = ADVANCED_FACE ( 'NONE', ( #181 ), #196, .F. ) ;
#43 = AXIS2_PLACEMENT_3D ( 'NONE', #197, #31, #101 ) ;
#44 = COORDINATED_UNIVERSAL_TIME_OFFSET ( 1, 0, .AHEAD. ) ;
#45 = PERSON_AND_ORGANIZATION ( #37, #2 ) ;
#46 = CC_DESIGN_APPROVAL ( #63, ( #172 ) ) ;
#47 = COORDINATED_UNIVERSAL_TIME_OFFSET ( 1, 0, .AHEAD. ) ;
#48 = DIRECTION ( 'NONE',  ( -4.275831445896958607E-31, -1.000000000000000000, -1.224646799147353207E-16 ) ) ;
#49 = DIRECTION ( 'NONE',  ( 4.275831445896958607E-31, 1.000000000000000000, 1.224646799147353207E-16 ) ) ;
#50 = AXIS2_PLACEMENT_3D ( 'NONE', #67, #88, #52 ) ;
#51 = EDGE_LOOP ( 'NONE', ( #156 ) ) ;
#52 = DIRECTION ( 'NONE',  ( 0.0000000000000000000, 1.000000000000000000, 0.0000000000000000000 ) ) ;
#53 = VERTEX_POINT ( 'NONE', #183 ) ;
#54 = AXIS2_PLACEMENT_3D ( 'NONE', #14, #13, #49 ) ;
#55 = SHAPE_DEFINITION_REPRESENTATION ( #118, #158 ) ;
#56 = PERSON_AND_ORGANIZATION ( #37, #2 ) ;
#57 = AXIS2_PLACEMENT_3D ( 'NONE', #66, #150, #136 ) ;
#58 = PERSON_AND_ORGANIZATION_ROLE ( 'design_owner' ) ;
#59 = VERTEX_POINT ( 'NONE', #216 ) ;
#60 = DATE_AND_TIME ( #214, #164 ) ;
#61 = PLANE ( 'NONE',  #198 ) ;
#62 = CLOSED_SHELL ( 'NONE', ( #137, #142, #42, #213, #106 ) ) ;
#63 = APPROVAL ( #8, 'UNSPECIFIED' ) ;
#64 = EDGE_CURVE ( 'NONE', #76, #76, #145, .T. ) ;
#65 = DIRECTION ( 'NONE',  ( -3.491481338843133355E-15, 0.0000000000000000000, -1.000000000000000000 ) ) ;
#66 = CARTESIAN_POINT ( 'NONE',  ( 0.0000000000000000000, 0.0000000000000000000, 0.0000000000000000000 ) ) ;
#67 = CARTESIAN_POINT ( 'NONE',  ( 1.326762908760390423E-13, -4.653657836759941941E-15, 38.00000000000000000 ) ) ;
#68 = EDGE_LOOP ( 'NONE', ( #36 ) ) ;
#69 = TOROIDAL_SURFACE ( 'NONE', #215, 8.875000000000001776, 8.000000000000000000 ) ;
#70 = DATE_AND_TIME ( #92, #33 ) ;
#71 = DIRECTION ( 'NONE',  ( 3.491481338843133355E-15, -0.0000000000000000000, 1.000000000000000000 ) ) ;
#72 = AXIS2_PLACEMENT_3D ( 'NONE', #167, #152, #220 ) ;
#73 = PERSON_AND_ORGANIZATION_ROLE ( 'creator' ) ;
#74 = COORDINATED_UNIVERSAL_TIME_OFFSET ( 1, 0, .AHEAD. ) ;
#75 =( NAMED_UNIT ( * ) PLANE_ANGLE_UNIT ( ) SI_UNIT ( $, .RADIAN. ) );
#76 = VERTEX_POINT ( 'NONE', #146 ) ;
#77 = CARTESIAN_POINT ( 'NONE',  ( 1.326762908760390423E-13, -4.653657836759941941E-15, 38.00000000000000000 ) ) ;
#78 = DATE_AND_TIME ( #178, #192 ) ;
#79 = EDGE_LOOP ( 'NONE', ( #3 ) ) ;
#80 = CC_DESIGN_PERSON_AND_ORGANIZATION_ASSIGNMENT ( #97, #166, ( #172 ) ) ;
#81 = CARTESIAN_POINT ( 'NONE',  ( 0.8750000000000000000, 0.0000000000000000000, -3.055046171487741686E-15 ) ) ;
#82 = CC_DESIGN_APPROVAL ( #122, ( #206 ) ) ;
#83 = DIRECTION ( 'NONE',  ( 3.491481338843133355E-15, -0.0000000000000000000, 1.000000000000000000 ) ) ;
#84 = DIRECTION ( 'NONE',  ( -4.275831445896958607E-31, -1.000000000000000000, -1.224646799147353207E-16 ) ) ;
#85 = DIRECTION ( 'NONE',  ( 3.491481338843133355E-15, -0.0000000000000000000, 1.000000000000000000 ) ) ;
#86 = AXIS2_PLACEMENT_3D ( 'NONE', #9, #7, #27 ) ;
#87 = EDGE_LOOP ( 'NONE', ( #107 ) ) ;
#88 = DIRECTION ( 'NONE',  ( -3.491481338843133355E-15, 1.224646799147353207E-16, -1.000000000000000000 ) ) ;
#89 = CC_DESIGN_DATE_AND_TIME_ASSIGNMENT ( #208, #38, ( #104 ) ) ;
#90 = CLOSED_SHELL ( 'NONE', ( #23, #201, #24 ) ) ;
#91 = EDGE_LOOP ( 'NONE', ( #17 ) ) ;
#92 = CALENDAR_DATE ( 2021, 10, 11 ) ;
#93 = APPROVAL_STATUS ( 'not_yet_approved' ) ;
#94 = AXIS2_PLACEMENT_3D ( 'NONE', #139, #102, #16 ) ;
#95 = VERTEX_POINT ( 'NONE', #99 ) ;
#96 = ORIENTED_EDGE ( 'NONE', *, *, #64, .F. ) ;
#97 = PERSON_AND_ORGANIZATION ( #37, #2 ) ;
#98 = CC_DESIGN_PERSON_AND_ORGANIZATION_ASSIGNMENT ( #157, #128, ( #104 ) ) ;
#99 = CARTESIAN_POINT ( 'NONE',  ( 0.8750000000000068834, 0.0000000000000000000, 1.749999999999995337 ) ) ;
#100 = DIRECTION ( 'NONE',  ( 3.491481338843133355E-15, -1.224646799147353207E-16, 1.000000000000000000 ) ) ;
#101 = DIRECTION ( 'NONE',  ( -4.275831445896958607E-31, -1.000000000000000000, -1.224646799147353207E-16 ) ) ;
#102 = DIRECTION ( 'NONE',  ( -3.491481338843133355E-15, 1.224646799147353207E-16, -1.000000000000000000 ) ) ;
#103 = CYLINDRICAL_SURFACE ( 'NONE', #94, 1.499999999999996447 ) ;
#104 = SECURITY_CLASSIFICATION ( '', '', #4 ) ;
#105 = EDGE_CURVE ( 'NONE', #116, #116, #126, .T. ) ;
#106 = ADVANCED_FACE ( 'NONE', ( #151 ), #149, .F. ) ;
#107 = ORIENTED_EDGE ( 'NONE', *, *, #30, .F. ) ;
#108 = ORIENTED_EDGE ( 'NONE', *, *, #21, .T. ) ;
#109 = EDGE_LOOP ( 'NONE', ( #193 ) ) ;
#110 = CARTESIAN_POINT ( 'NONE',  ( 1.316288464743861212E-13, -4.616918432785521081E-15, 37.69999999999999574 ) ) ;
#111 = DATE_AND_TIME ( #134, #170 ) ;
#112 =( LENGTH_UNIT ( ) NAMED_UNIT ( * ) SI_UNIT ( .MILLI., .METRE. ) );
#113 = APPROVAL_ROLE ( '' ) ;
#114 = APPROVAL_PERSON_ORGANIZATION ( #56, #122, #179 ) ;
#115 = FACE_OUTER_BOUND ( 'NONE', #135, .T. ) ;
#116 = VERTEX_POINT ( 'NONE', #81 ) ;
#117 = FACE_OUTER_BOUND ( 'NONE', #109, .T. ) ;
#118 = PRODUCT_DEFINITION_SHAPE ( 'NONE', 'NONE',  #172 ) ;
#119 = CARTESIAN_POINT ( 'NONE',  ( 1.693333252382170896E-14, 0.0000000000000000000, 4.849899191909298857 ) ) ;
#120 = CARTESIAN_POINT ( 'NONE',  ( -6.413803915257457113E-31, 2.249659577954772199E-32, -1.836986451539393076E-16 ) ) ;
#121 = FACE_OUTER_BOUND ( 'NONE', #91, .T. ) ;
#122 = APPROVAL ( #131, 'UNSPECIFIED' ) ;
#123 = EDGE_CURVE ( 'NONE', #59, #59, #203, .T. ) ;
#124 = CC_DESIGN_SECURITY_CLASSIFICATION ( #104, ( #206 ) ) ;
#125 = ORIENTED_EDGE ( 'NONE', *, *, #223, .F. ) ;
#126 = CIRCLE ( 'NONE', #57, 0.8750000000000000000 ) ;
#127 = MANIFOLD_SOLID_BREP ( 'Corps-Déplacer/Copier1[1]', #62 ) ;
#128 = PERSON_AND_ORGANIZATION_ROLE ( 'classification_officer' ) ;
#129 = CC_DESIGN_PERSON_AND_ORGANIZATION_ASSIGNMENT ( #209, #207, ( #206 ) ) ;
#130 = APPLICATION_PROTOCOL_DEFINITION ( 'international standard', 'config_control_design', 1994, #26 ) ;
#131 = APPROVAL_STATUS ( 'not_yet_approved' ) ;
#132 = APPROVAL_PERSON_ORGANIZATION ( #159, #222, #185 ) ;
#133 = CARTESIAN_POINT ( 'NONE',  ( 6.110092342975482583E-15, -2.529805069132850746E-16, 1.749999999999999778 ) ) ;
#134 = CALENDAR_DATE ( 2021, 10, 11 ) ;
#135 = EDGE_LOOP ( 'NONE', ( #1 ) ) ;
#136 = DIRECTION ( 'NONE',  ( 1.000000000000000000, 0.0000000000000000000, -3.491481338843133355E-15 ) ) ;
#137 = ADVANCED_FACE ( 'NONE', ( #121, #182 ), #103, .T. ) ;
#138 = CIRCLE ( 'NONE', #211, 0.8750000000000007772 ) ;
#139 = CARTESIAN_POINT ( 'NONE',  ( 0.0000000000000000000, 0.0000000000000000000, 0.0000000000000000000 ) ) ;
#140 = CC_DESIGN_PERSON_AND_ORGANIZATION_ASSIGNMENT ( #163, #73, ( #206 ) ) ;
#141 = DIRECTION ( 'NONE',  ( 1.000000000000000000, 0.0000000000000000000, -3.491481338843133355E-15 ) ) ;
#142 = ADVANCED_FACE ( 'NONE', ( #169, #18 ), #143, .T. ) ;
#143 = CONICAL_SURFACE ( 'NONE', #50, 1.199999999999998845, 0.7853981633974450594 ) ;
#144 = APPROVAL_DATE_TIME ( #111, #122 ) ;
#145 = CIRCLE ( 'NONE', #28, 1.499999999999996447 ) ;
#146 = CARTESIAN_POINT ( 'NONE',  ( -1.499999999999979350, 0.0000000000000000000, 4.849899191909304186 ) ) ;
#147 = DIRECTION ( 'NONE',  ( -3.491481338843133355E-15, 1.224646799147353207E-16, -1.000000000000000000 ) ) ;
#148 = COORDINATED_UNIVERSAL_TIME_OFFSET ( 1, 0, .AHEAD. ) ;
#149 = PLANE ( 'NONE',  #43 ) ;
#150 = DIRECTION ( 'NONE',  ( 3.491481338843133355E-15, -0.0000000000000000000, 1.000000000000000000 ) ) ;
#151 = FACE_OUTER_BOUND ( 'NONE', #19, .T. ) ;
#152 = DIRECTION ( 'NONE',  ( 3.491481338843133355E-15, -0.0000000000000000000, 1.000000000000000000 ) ) ;
#153 = FACE_OUTER_BOUND ( 'NONE', #68, .T. ) ;
#154 = ORIENTED_EDGE ( 'NONE', *, *, #123, .F. ) ;
#155 = CIRCLE ( 'NONE', #177, 1.499999999999998446 ) ;
#156 = ORIENTED_EDGE ( 'NONE', *, *, #64, .T. ) ;
#157 = PERSON_AND_ORGANIZATION ( #37, #2 ) ;
#158 = ADVANCED_BREP_SHAPE_REPRESENTATION ( '64381', ( #127, #194, #86 ), #11 ) ;
#159 = PERSON_AND_ORGANIZATION ( #37, #2 ) ;
#160 = CC_DESIGN_DATE_AND_TIME_ASSIGNMENT ( #60, #175, ( #172 ) ) ;
#161 = APPROVAL_DATE_TIME ( #70, #222 ) ;
#162 = CC_DESIGN_APPROVAL ( #222, ( #104 ) ) ;
#163 = PERSON_AND_ORGANIZATION ( #37, #2 ) ;
#164 = LOCAL_TIME ( 8, 14, 33.00000000000000000, #148 ) ;
#165 = APPLICATION_PROTOCOL_DEFINITION ( 'international standard', 'config_control_design', 1994, #171 ) ;
#166 = PERSON_AND_ORGANIZATION_ROLE ( 'creator' ) ;
#167 = CARTESIAN_POINT ( 'NONE',  ( 6.110092342975477061E-15, 0.0000000000000000000, 1.749999999999998224 ) ) ;
#168 = CARTESIAN_POINT ( 'NONE',  ( 0.0000000000000000000, 0.0000000000000000000, 0.0000000000000000000 ) ) ;
#169 = FACE_OUTER_BOUND ( 'NONE', #200, .T. ) ;
#170 = LOCAL_TIME ( 8, 14, 33.00000000000000000, #44 ) ;
#171 = APPLICATION_CONTEXT ( 'configuration controlled 3d designs of mechanical parts and assemblies' ) ;
#172 = PRODUCT_DEFINITION ( 'UNKNOWN', '', #206, #202 ) ;
#173 = DIRECTION ( 'NONE',  ( 0.0000000000000000000, 1.000000000000000000, 0.0000000000000000000 ) ) ;
#174 = AXIS2_PLACEMENT_3D ( 'NONE', #77, #147, #190 ) ;
#175 = DATE_TIME_ROLE ( 'creation_date' ) ;
#176 = EDGE_LOOP ( 'NONE', ( #12 ) ) ;
#177 = AXIS2_PLACEMENT_3D ( 'NONE', #110, #205, #173 ) ;
#178 = CALENDAR_DATE ( 2021, 10, 11 ) ;
#179 = APPROVAL_ROLE ( '' ) ;
#180 = DIRECTION ( 'NONE',  ( -1.000000000000000000, 0.0000000000000000000, 3.469446951953622472E-15 ) ) ;
#181 = FACE_OUTER_BOUND ( 'NONE', #79, .T. ) ;
#182 = FACE_OUTER_BOUND ( 'NONE', #15, .T. ) ;
#183 = CARTESIAN_POINT ( 'NONE',  ( 1.326762908760390423E-13, 1.199999999999994182, 38.00000000000000000 ) ) ;
#184 = AXIS2_PLACEMENT_3D ( 'NONE', #120, #100, #84 ) ;
#185 = APPROVAL_ROLE ( '' ) ;
#186 = AXIS2_PLACEMENT_3D ( 'NONE', #168, #85, #141 ) ;
#187 = CARTESIAN_POINT ( 'NONE',  ( 1.316288464743861212E-13, 1.499999999999994005, 37.69999999999999574 ) ) ;
#188 = PRODUCT ( '64381', '64381', '', ( #212 ) ) ;
#189 =( NAMED_UNIT ( * ) SI_UNIT ( $, .STERADIAN. ) SOLID_ANGLE_UNIT ( ) );
#190 = DIRECTION ( 'NONE',  ( 0.0000000000000000000, 1.000000000000000000, 0.0000000000000000000 ) ) ;
#191 = PRODUCT_RELATED_PRODUCT_CATEGORY ( 'detail', '', ( #188 ) ) ;
#192 = LOCAL_TIME ( 8, 14, 33.00000000000000000, #47 ) ;
#193 = ORIENTED_EDGE ( 'NONE', *, *, #105, .F. ) ;
#194 = MANIFOLD_SOLID_BREP ( 'Corps-Déplacer/Copier1[2]', #90 ) ;
#195 = DIRECTION ( 'NONE',  ( 3.491481338843133355E-15, -1.224646799147353207E-16, 1.000000000000000000 ) ) ;
#196 = PLANE ( 'NONE',  #54 ) ;
#197 = CARTESIAN_POINT ( 'NONE',  ( 6.110092342975482583E-15, -2.529805069132850746E-16, 1.749999999999999778 ) ) ;
#198 = AXIS2_PLACEMENT_3D ( 'NONE', #133, #195, #48 ) ;
#199 = FACE_OUTER_BOUND ( 'NONE', #51, .T. ) ;
#200 = EDGE_LOOP ( 'NONE', ( #125 ) ) ;
#201 = ADVANCED_FACE ( 'NONE', ( #34, #32 ), #221, .T. ) ;
#202 = DESIGN_CONTEXT ( 'detailed design', #26, 'design' ) ;
#203 = CIRCLE ( 'NONE', #72, 0.8750000000000007772 ) ;
#204 = COORDINATED_UNIVERSAL_TIME_OFFSET ( 1, 0, .AHEAD. ) ;
#205 = DIRECTION ( 'NONE',  ( -3.491481338843133355E-15, 1.224646799147353207E-16, -1.000000000000000000 ) ) ;
#206 = PRODUCT_DEFINITION_FORMATION_WITH_SPECIFIED_SOURCE ( 'ANY', '', #188, .NOT_KNOWN. ) ;
#207 = PERSON_AND_ORGANIZATION_ROLE ( 'design_supplier' ) ;
#208 = DATE_AND_TIME ( #22, #6 ) ;
#209 = PERSON_AND_ORGANIZATION ( #37, #2 ) ;
#210 = APPROVAL_DATE_TIME ( #78, #63 ) ;
#211 = AXIS2_PLACEMENT_3D ( 'NONE', #218, #83, #217 ) ;
#212 = MECHANICAL_CONTEXT ( 'NONE', #171, 'mechanical' ) ;
#213 = ADVANCED_FACE ( 'NONE', ( #153, #199 ), #69, .F. ) ;
#214 = CALENDAR_DATE ( 2021, 10, 11 ) ;
#215 = AXIS2_PLACEMENT_3D ( 'NONE', #5, #71, #40 ) ;
#216 = CARTESIAN_POINT ( 'NONE',  ( 0.8750000000000068834, 0.0000000000000000000, 1.749999999999995337 ) ) ;
#217 = DIRECTION ( 'NONE',  ( 1.000000000000000000, 0.0000000000000000000, -3.469446951953611033E-15 ) ) ;
#218 = CARTESIAN_POINT ( 'NONE',  ( 6.110092342975477061E-15, 0.0000000000000000000, 1.749999999999998224 ) ) ;
#219 = EDGE_LOOP ( 'NONE', ( #108 ) ) ;
#220 = DIRECTION ( 'NONE',  ( 1.000000000000000000, 0.0000000000000000000, -3.469446951953611033E-15 ) ) ;
#221 = CYLINDRICAL_SURFACE ( 'NONE', #186, 0.8750000000000003331 ) ;
#222 = APPROVAL ( #93, 'UNSPECIFIED' ) ;
#223 = EDGE_CURVE ( 'NONE', #25, #25, #155, .T. ) ;
ENDSEC;
END-ISO-10303-21;
