ISO-10303-21;
HEADER;
FILE_DESCRIPTION (( 'STEP AP203' ),
    '1' );
FILE_NAME ('64380.step',
    '2021-11-10T07:14:32',
    ( '' ),
    ( '' ),
    'SwSTEP 2.0',
    'SolidWorks 2019',
    '' );
FILE_SCHEMA (( 'CONFIG_CONTROL_DESIGN' ));
ENDSEC;

DATA;
#1 = DIRECTION ( 'NONE',  ( 0.0000000000000000000, 1.000000000000000000, 0.0000000000000000000 ) ) ;
#2 = TOROIDAL_SURFACE ( 'NONE', #184, 8.849999999999999645, 8.000000000000000000 ) ;
#3 = CARTESIAN_POINT ( 'NONE',  ( 1.326762908760390423E-13, -4.653657836759941941E-15, 38.00000000000000000 ) ) ;
#4 = FACE_OUTER_BOUND ( 'NONE', #6, .T. ) ;
#5 = CIRCLE ( 'NONE', #194, 1.499999999999998446 ) ;
#6 = EDGE_LOOP ( 'NONE', ( #80 ) ) ;
#7 = EDGE_LOOP ( 'NONE', ( #59 ) ) ;
#8 = VERTEX_POINT ( 'NONE', #160 ) ;
#9 = PERSON ( 'UNSPECIFIED', 'UNSPECIFIED', 'UNSPECIFIED', ('UNSPECIFIED'), ('UNSPECIFIED'), ('UNSPECIFIED') ) ;
#10 = DIRECTION ( 'NONE',  ( 3.491481338843133355E-15, -1.224646799147353207E-16, 1.000000000000000000 ) ) ;
#11 =( LENGTH_UNIT ( ) NAMED_UNIT ( * ) SI_UNIT ( .MILLI., .METRE. ) );
#12 = PERSON_AND_ORGANIZATION ( #9, #108 ) ;
#13 = PRODUCT ( '64380', '64380', '', ( #175 ) ) ;
#14 = EDGE_LOOP ( 'NONE', ( #149 ) ) ;
#15 = PERSON_AND_ORGANIZATION ( #9, #108 ) ;
#16 = SECURITY_CLASSIFICATION ( '', '', #123 ) ;
#17 = UNCERTAINTY_MEASURE_WITH_UNIT (LENGTH_MEASURE( 1.000000000000000082E-05 ), #11, 'distance_accuracy_value', 'NONE');
#18 = EDGE_CURVE ( 'NONE', #135, #135, #213, .T. ) ;
#19 = DIRECTION ( 'NONE',  ( 3.491481338843133355E-15, -1.224646799147353207E-16, 1.000000000000000000 ) ) ;
#20 = EDGE_LOOP ( 'NONE', ( #199 ) ) ;
#21 = APPROVAL_PERSON_ORGANIZATION ( #145, #132, #120 ) ;
#22 = CARTESIAN_POINT ( 'NONE',  ( 5.935518276033320393E-15, 0.0000000000000000000, 1.699999999999998179 ) ) ;
#23 = CC_DESIGN_DATE_AND_TIME_ASSIGNMENT ( #223, #214, ( #116 ) ) ;
#24 = FACE_OUTER_BOUND ( 'NONE', #93, .T. ) ;
#25 = CC_DESIGN_SECURITY_CLASSIFICATION ( #16, ( #201 ) ) ;
#26 = CARTESIAN_POINT ( 'NONE',  ( 1.326762908760390423E-13, 1.199999999999994182, 38.00000000000000000 ) ) ;
#27 = PRODUCT_DEFINITION_SHAPE ( 'NONE', 'NONE',  #116 ) ;
#28 = DIRECTION ( 'NONE',  ( 1.000000000000000000, 0.0000000000000000000, -3.491481338843132961E-15 ) ) ;
#29 = CARTESIAN_POINT ( 'NONE',  ( 0.8500000000000059730, 0.0000000000000000000, 1.699999999999995071 ) ) ;
#30 =( GEOMETRIC_REPRESENTATION_CONTEXT ( 3 ) GLOBAL_UNCERTAINTY_ASSIGNED_CONTEXT ( ( #17 ) ) GLOBAL_UNIT_ASSIGNED_CONTEXT ( ( #11, #98, #170 ) ) REPRESENTATION_CONTEXT ( 'NONE', 'WORKASPACE' ) );
#31 = DATE_AND_TIME ( #67, #48 ) ;
#32 = DATE_AND_TIME ( #87, #125 ) ;
#33 = FACE_OUTER_BOUND ( 'NONE', #74, .T. ) ;
#34 = PERSON_AND_ORGANIZATION ( #9, #108 ) ;
#35 = COORDINATED_UNIVERSAL_TIME_OFFSET ( 1, 0, .AHEAD. ) ;
#36 = ADVANCED_FACE ( 'NONE', ( #33 ), #181, .T. ) ;
#37 = ADVANCED_FACE ( 'NONE', ( #162, #78 ), #134, .T. ) ;
#38 = AXIS2_PLACEMENT_3D ( 'NONE', #153, #133, #1 ) ;
#39 = CARTESIAN_POINT ( 'NONE',  ( 5.935518276033320393E-15, 0.0000000000000000000, 1.699999999999998179 ) ) ;
#40 = DIRECTION ( 'NONE',  ( -1.000000000000000000, 0.0000000000000000000, 3.469446951953622472E-15 ) ) ;
#41 = DIRECTION ( 'NONE',  ( 3.491481338843133355E-15, -1.224646799147353207E-16, 1.000000000000000000 ) ) ;
#42 = MANIFOLD_SOLID_BREP ( 'Corps-Déplacer/Copier1[2]', #179 ) ;
#43 = CARTESIAN_POINT ( 'NONE',  ( -1.499999999999979350, 0.0000000000000000000, 4.858718094417411315 ) ) ;
#44 = VERTEX_POINT ( 'NONE', #62 ) ;
#45 = DIRECTION ( 'NONE',  ( 0.0000000000000000000, 1.000000000000000000, 0.0000000000000000000 ) ) ;
#46 = DIRECTION ( 'NONE',  ( -3.491481338843133355E-15, 1.224646799147353207E-16, -1.000000000000000000 ) ) ;
#47 = PERSON_AND_ORGANIZATION_ROLE ( 'classification_officer' ) ;
#48 = LOCAL_TIME ( 8, 14, 32.00000000000000000, #85 ) ;
#49 = PERSON_AND_ORGANIZATION ( #9, #108 ) ;
#50 = EDGE_CURVE ( 'NONE', #157, #157, #219, .T. ) ;
#51 = DESIGN_CONTEXT ( 'detailed design', #146, 'design' ) ;
#52 = PERSON_AND_ORGANIZATION ( #9, #108 ) ;
#53 = EDGE_LOOP ( 'NONE', ( #58 ) ) ;
#54 = LOCAL_TIME ( 8, 14, 32.00000000000000000, #35 ) ;
#55 = CALENDAR_DATE ( 2021, 10, 11 ) ;
#56 = EDGE_LOOP ( 'NONE', ( #178 ) ) ;
#57 = EDGE_CURVE ( 'NONE', #95, #95, #151, .T. ) ;
#58 = ORIENTED_EDGE ( 'NONE', *, *, #50, .F. ) ;
#59 = ORIENTED_EDGE ( 'NONE', *, *, #57, .F. ) ;
#60 = ORIENTED_EDGE ( 'NONE', *, *, #137, .T. ) ;
#61 = CARTESIAN_POINT ( 'NONE',  ( 1.316288464743861212E-13, -4.616918432785521081E-15, 37.69999999999999574 ) ) ;
#62 = CARTESIAN_POINT ( 'NONE',  ( 0.8500000000000059730, 0.0000000000000000000, 1.699999999999995071 ) ) ;
#63 = CARTESIAN_POINT ( 'NONE',  ( 5.935518276033324337E-15, 0.0000000000000000000, 1.699999999999999289 ) ) ;
#64 = ADVANCED_FACE ( 'NONE', ( #200 ), #198, .F. ) ;
#65 = DIRECTION ( 'NONE',  ( 1.000000000000000000, 0.0000000000000000000, -3.571489509364014096E-15 ) ) ;
#66 = CARTESIAN_POINT ( 'NONE',  ( 0.0000000000000000000, 0.0000000000000000000, 0.0000000000000000000 ) ) ;
#67 = CALENDAR_DATE ( 2021, 10, 11 ) ;
#68 = EDGE_CURVE ( 'NONE', #8, #8, #69, .T. ) ;
#69 = CIRCLE ( 'NONE', #197, 0.8499999999999999778 ) ;
#70 = COORDINATED_UNIVERSAL_TIME_OFFSET ( 1, 0, .AHEAD. ) ;
#71 = PERSON_AND_ORGANIZATION_ROLE ( 'design_owner' ) ;
#72 = PERSON_AND_ORGANIZATION_ROLE ( 'design_supplier' ) ;
#73 = DIRECTION ( 'NONE',  ( 0.0000000000000000000, 1.000000000000000000, 0.0000000000000000000 ) ) ;
#74 = EDGE_LOOP ( 'NONE', ( #60 ) ) ;
#75 = CC_DESIGN_APPROVAL ( #217, ( #116 ) ) ;
#76 = AXIS2_PLACEMENT_3D ( 'NONE', #173, #46, #119 ) ;
#77 = FACE_OUTER_BOUND ( 'NONE', #174, .T. ) ;
#78 = FACE_BOUND ( 'NONE', #56, .T. ) ;
#79 = APPROVAL ( #188, 'UNSPECIFIED' ) ;
#80 = ORIENTED_EDGE ( 'NONE', *, *, #57, .T. ) ;
#81 = CYLINDRICAL_SURFACE ( 'NONE', #215, 1.499999999999996447 ) ;
#82 = CLOSED_SHELL ( 'NONE', ( #150, #37, #89, #84, #64 ) ) ;
#83 = CALENDAR_DATE ( 2021, 10, 11 ) ;
#84 = ADVANCED_FACE ( 'NONE', ( #4, #77 ), #2, .F. ) ;
#85 = COORDINATED_UNIVERSAL_TIME_OFFSET ( 1, 0, .AHEAD. ) ;
#86 = EDGE_LOOP ( 'NONE', ( #168 ) ) ;
#87 = CALENDAR_DATE ( 2021, 10, 11 ) ;
#88 = AXIS2_PLACEMENT_3D ( 'NONE', #3, #196, #73 ) ;
#89 = ADVANCED_FACE ( 'NONE', ( #207 ), #138, .F. ) ;
#90 = EDGE_LOOP ( 'NONE', ( #113 ) ) ;
#91 = DIRECTION ( 'NONE',  ( 3.491481338843133355E-15, -0.0000000000000000000, 1.000000000000000000 ) ) ;
#92 = APPROVAL_PERSON_ORGANIZATION ( #34, #217, #176 ) ;
#93 = EDGE_LOOP ( 'NONE', ( #167 ) ) ;
#94 = PRODUCT_RELATED_PRODUCT_CATEGORY ( 'detail', '', ( #13 ) ) ;
#95 = VERTEX_POINT ( 'NONE', #29 ) ;
#96 = DIRECTION ( 'NONE',  ( -4.275831445896958607E-31, -1.000000000000000000, -1.224646799147353207E-16 ) ) ;
#97 = AXIS2_PLACEMENT_3D ( 'NONE', #156, #10, #96 ) ;
#98 =( NAMED_UNIT ( * ) PLANE_ANGLE_UNIT ( ) SI_UNIT ( $, .RADIAN. ) );
#99 = CARTESIAN_POINT ( 'NONE',  ( 1.316288464743861212E-13, 1.499999999999994005, 37.69999999999999574 ) ) ;
#100 = DIRECTION ( 'NONE',  ( -3.491481338843133355E-15, 1.224646799147353207E-16, -1.000000000000000000 ) ) ;
#101 = APPROVAL_DATE_TIME ( #32, #217 ) ;
#102 = SHAPE_DEFINITION_REPRESENTATION ( #27, #103 ) ;
#103 = ADVANCED_BREP_SHAPE_REPRESENTATION ( '64380', ( #189, #42, #128 ), #30 ) ;
#104 = AXIS2_PLACEMENT_3D ( 'NONE', #105, #41, #152 ) ;
#105 = CARTESIAN_POINT ( 'NONE',  ( 5.935518276033325915E-15, -2.457524924300483455E-16, 1.699999999999999734 ) ) ;
#106 = DIRECTION ( 'NONE',  ( 1.000000000000000000, 0.0000000000000000000, 0.0000000000000000000 ) ) ;
#107 = APPLICATION_PROTOCOL_DEFINITION ( 'international standard', 'config_control_design', 1994, #146 ) ;
#108 = ORGANIZATION ( 'UNSPECIFIED', 'UNSPECIFIED', '' ) ;
#109 = ADVANCED_FACE ( 'NONE', ( #115 ), #203, .F. ) ;
#110 = DIRECTION ( 'NONE',  ( 3.491481338843133355E-15, -0.0000000000000000000, 1.000000000000000000 ) ) ;
#111 = DIRECTION ( 'NONE',  ( -4.275831445896958607E-31, -1.000000000000000000, -1.224646799147353207E-16 ) ) ;
#112 = CC_DESIGN_PERSON_AND_ORGANIZATION_ASSIGNMENT ( #52, #71, ( #13 ) ) ;
#113 = ORIENTED_EDGE ( 'NONE', *, *, #18, .F. ) ;
#114 = DIRECTION ( 'NONE',  ( 3.491481338843133355E-15, -0.0000000000000000000, 1.000000000000000000 ) ) ;
#115 = FACE_OUTER_BOUND ( 'NONE', #20, .T. ) ;
#116 = PRODUCT_DEFINITION ( 'UNKNOWN', '', #201, #51 ) ;
#117 = DIRECTION ( 'NONE',  ( 1.000000000000000000, 0.0000000000000000000, -3.491481338843133750E-15 ) ) ;
#118 = DIRECTION ( 'NONE',  ( 3.491481338843133355E-15, -0.0000000000000000000, 1.000000000000000000 ) ) ;
#119 = DIRECTION ( 'NONE',  ( 4.275831445896958607E-31, 1.000000000000000000, 1.224646799147353207E-16 ) ) ;
#120 = APPROVAL_ROLE ( '' ) ;
#121 = AXIS2_PLACEMENT_3D ( 'NONE', #155, #114, #28 ) ;
#122 = DATE_AND_TIME ( #55, #220 ) ;
#123 = SECURITY_CLASSIFICATION_LEVEL ( 'unclassified' ) ;
#124 = PERSON_AND_ORGANIZATION_ROLE ( 'creator' ) ;
#125 = LOCAL_TIME ( 8, 14, 32.00000000000000000, #210 ) ;
#126 = APPROVAL_DATE_TIME ( #31, #79 ) ;
#127 = DIRECTION ( 'NONE',  ( -3.491481338843133355E-15, 0.0000000000000000000, -1.000000000000000000 ) ) ;
#128 = AXIS2_PLACEMENT_3D ( 'NONE', #66, #142, #106 ) ;
#129 = ORIENTED_EDGE ( 'NONE', *, *, #68, .T. ) ;
#130 = CC_DESIGN_PERSON_AND_ORGANIZATION_ASSIGNMENT ( #15, #72, ( #201 ) ) ;
#131 = EDGE_LOOP ( 'NONE', ( #129 ) ) ;
#132 = APPROVAL ( #143, 'UNSPECIFIED' ) ;
#133 = DIRECTION ( 'NONE',  ( -3.491481338843133355E-15, 1.224646799147353207E-16, -1.000000000000000000 ) ) ;
#134 = CONICAL_SURFACE ( 'NONE', #38, 1.199999999999998845, 0.7853981633974450594 ) ;
#135 = VERTEX_POINT ( 'NONE', #43 ) ;
#136 = ADVANCED_FACE ( 'NONE', ( #183, #185 ), #187, .T. ) ;
#137 = EDGE_CURVE ( 'NONE', #44, #44, #205, .T. ) ;
#138 = PLANE ( 'NONE',  #76 ) ;
#139 = AXIS2_PLACEMENT_3D ( 'NONE', #39, #110, #177 ) ;
#140 = DIRECTION ( 'NONE',  ( -3.491481338843133355E-15, 1.224646799147353207E-16, -1.000000000000000000 ) ) ;
#141 = CC_DESIGN_PERSON_AND_ORGANIZATION_ASSIGNMENT ( #49, #124, ( #116 ) ) ;
#142 = DIRECTION ( 'NONE',  ( 0.0000000000000000000, 0.0000000000000000000, 1.000000000000000000 ) ) ;
#143 = APPROVAL_STATUS ( 'not_yet_approved' ) ;
#144 = CALENDAR_DATE ( 2021, 10, 11 ) ;
#145 = PERSON_AND_ORGANIZATION ( #9, #108 ) ;
#146 = APPLICATION_CONTEXT ( 'configuration controlled 3d designs of mechanical parts and assemblies' ) ;
#147 = COORDINATED_UNIVERSAL_TIME_OFFSET ( 1, 0, .AHEAD. ) ;
#148 = AXIS2_PLACEMENT_3D ( 'NONE', #191, #127, #40 ) ;
#149 = ORIENTED_EDGE ( 'NONE', *, *, #137, .F. ) ;
#150 = ADVANCED_FACE ( 'NONE', ( #24, #202 ), #81, .T. ) ;
#151 = CIRCLE ( 'NONE', #139, 0.8500000000000000888 ) ;
#152 = DIRECTION ( 'NONE',  ( -4.275831445896958607E-31, -1.000000000000000000, -1.224646799147353207E-16 ) ) ;
#153 = CARTESIAN_POINT ( 'NONE',  ( 1.326762908760390423E-13, -4.653657836759941941E-15, 38.00000000000000000 ) ) ;
#154 = EDGE_CURVE ( 'NONE', #206, #206, #5, .T. ) ;
#155 = CARTESIAN_POINT ( 'NONE',  ( 0.0000000000000000000, 0.0000000000000000000, 0.0000000000000000000 ) ) ;
#156 = CARTESIAN_POINT ( 'NONE',  ( -6.413803915257457113E-31, 2.249659577954772199E-32, -1.836986451539393076E-16 ) ) ;
#157 = VERTEX_POINT ( 'NONE', #26 ) ;
#158 = APPLICATION_PROTOCOL_DEFINITION ( 'international standard', 'config_control_design', 1994, #192 ) ;
#159 = APPROVAL_PERSON_ORGANIZATION ( #222, #79, #193 ) ;
#160 = CARTESIAN_POINT ( 'NONE',  ( 0.8499999999999999778, 0.0000000000000000000, -2.967759138016662958E-15 ) ) ;
#161 = DATE_AND_TIME ( #144, #54 ) ;
#162 = FACE_OUTER_BOUND ( 'NONE', #86, .T. ) ;
#163 = APPROVAL_STATUS ( 'not_yet_approved' ) ;
#164 = AXIS2_PLACEMENT_3D ( 'NONE', #22, #172, #65 ) ;
#165 = CARTESIAN_POINT ( 'NONE',  ( 0.0000000000000000000, 0.0000000000000000000, 0.0000000000000000000 ) ) ;
#166 = DIRECTION ( 'NONE',  ( 1.000000000000000000, 0.0000000000000000000, -3.491481338843132961E-15 ) ) ;
#167 = ORIENTED_EDGE ( 'NONE', *, *, #154, .T. ) ;
#168 = ORIENTED_EDGE ( 'NONE', *, *, #154, .F. ) ;
#169 = AXIS2_PLACEMENT_3D ( 'NONE', #216, #19, #111 ) ;
#170 =( NAMED_UNIT ( * ) SI_UNIT ( $, .STERADIAN. ) SOLID_ANGLE_UNIT ( ) );
#171 = CC_DESIGN_PERSON_AND_ORGANIZATION_ASSIGNMENT ( #212, #208, ( #201 ) ) ;
#172 = DIRECTION ( 'NONE',  ( 3.491481338843133355E-15, -0.0000000000000000000, 1.000000000000000000 ) ) ;
#173 = CARTESIAN_POINT ( 'NONE',  ( 1.326762908760390423E-13, 8.998558695971069014E-33, 38.00000000000000000 ) ) ;
#174 = EDGE_LOOP ( 'NONE', ( #211 ) ) ;
#175 = MECHANICAL_CONTEXT ( 'NONE', #192, 'mechanical' ) ;
#176 = APPROVAL_ROLE ( '' ) ;
#177 = DIRECTION ( 'NONE',  ( 1.000000000000000000, 0.0000000000000000000, -3.571489509364014096E-15 ) ) ;
#178 = ORIENTED_EDGE ( 'NONE', *, *, #50, .T. ) ;
#179 = CLOSED_SHELL ( 'NONE', ( #36, #136, #109 ) ) ;
#180 = CC_DESIGN_APPROVAL ( #132, ( #16 ) ) ;
#181 = PLANE ( 'NONE',  #104 ) ;
#182 = CC_DESIGN_PERSON_AND_ORGANIZATION_ASSIGNMENT ( #12, #47, ( #16 ) ) ;
#183 = FACE_OUTER_BOUND ( 'NONE', #131, .T. ) ;
#184 = AXIS2_PLACEMENT_3D ( 'NONE', #63, #118, #117 ) ;
#185 = FACE_OUTER_BOUND ( 'NONE', #14, .T. ) ;
#186 = DIRECTION ( 'NONE',  ( 4.275831445896958607E-31, 1.000000000000000000, 1.224646799147352961E-16 ) ) ;
#187 = CYLINDRICAL_SURFACE ( 'NONE', #121, 0.8500000000000000888 ) ;
#188 = APPROVAL_STATUS ( 'not_yet_approved' ) ;
#189 = MANIFOLD_SOLID_BREP ( 'Corps-Déplacer/Copier1[1]', #82 ) ;
#190 = APPROVAL_DATE_TIME ( #161, #132 ) ;
#191 = CARTESIAN_POINT ( 'NONE',  ( 1.696412355735784311E-14, 0.0000000000000000000, 4.858718094417405986 ) ) ;
#192 = APPLICATION_CONTEXT ( 'configuration controlled 3d designs of mechanical parts and assemblies' ) ;
#193 = APPROVAL_ROLE ( '' ) ;
#194 = AXIS2_PLACEMENT_3D ( 'NONE', #61, #140, #45 ) ;
#195 = DATE_TIME_ROLE ( 'classification_date' ) ;
#196 = DIRECTION ( 'NONE',  ( -3.491481338843133355E-15, 1.224646799147353207E-16, -1.000000000000000000 ) ) ;
#197 = AXIS2_PLACEMENT_3D ( 'NONE', #165, #91, #166 ) ;
#198 = PLANE ( 'NONE',  #169 ) ;
#199 = ORIENTED_EDGE ( 'NONE', *, *, #68, .F. ) ;
#200 = FACE_OUTER_BOUND ( 'NONE', #7, .T. ) ;
#201 = PRODUCT_DEFINITION_FORMATION_WITH_SPECIFIED_SOURCE ( 'ANY', '', #13, .NOT_KNOWN. ) ;
#202 = FACE_OUTER_BOUND ( 'NONE', #90, .T. ) ;
#203 = PLANE ( 'NONE',  #97 ) ;
#204 = LOCAL_TIME ( 8, 14, 32.00000000000000000, #70 ) ;
#205 = CIRCLE ( 'NONE', #164, 0.8500000000000000888 ) ;
#206 = VERTEX_POINT ( 'NONE', #99 ) ;
#207 = FACE_OUTER_BOUND ( 'NONE', #53, .T. ) ;
#208 = PERSON_AND_ORGANIZATION_ROLE ( 'creator' ) ;
#209 = CC_DESIGN_APPROVAL ( #79, ( #201 ) ) ;
#210 = COORDINATED_UNIVERSAL_TIME_OFFSET ( 1, 0, .AHEAD. ) ;
#211 = ORIENTED_EDGE ( 'NONE', *, *, #18, .T. ) ;
#212 = PERSON_AND_ORGANIZATION ( #9, #108 ) ;
#213 = CIRCLE ( 'NONE', #148, 1.499999999999996447 ) ;
#214 = DATE_TIME_ROLE ( 'creation_date' ) ;
#215 = AXIS2_PLACEMENT_3D ( 'NONE', #218, #100, #186 ) ;
#216 = CARTESIAN_POINT ( 'NONE',  ( 5.935518276033325915E-15, -2.457524924300483455E-16, 1.699999999999999734 ) ) ;
#217 = APPROVAL ( #163, 'UNSPECIFIED' ) ;
#218 = CARTESIAN_POINT ( 'NONE',  ( 0.0000000000000000000, 0.0000000000000000000, 0.0000000000000000000 ) ) ;
#219 = CIRCLE ( 'NONE', #88, 1.199999999999998845 ) ;
#220 = LOCAL_TIME ( 8, 14, 32.00000000000000000, #147 ) ;
#221 = CC_DESIGN_DATE_AND_TIME_ASSIGNMENT ( #122, #195, ( #16 ) ) ;
#222 = PERSON_AND_ORGANIZATION ( #9, #108 ) ;
#223 = DATE_AND_TIME ( #83, #204 ) ;
ENDSEC;
END-ISO-10303-21;
