ISO-10303-21;
HEADER;
FILE_DESCRIPTION (( 'STEP AP203' ),
    '1' );
FILE_NAME ('64379.step',
    '2021-11-10T07:14:31',
    ( '' ),
    ( '' ),
    'SwSTEP 2.0',
    'SolidWorks 2019',
    '' );
FILE_SCHEMA (( 'CONFIG_CONTROL_DESIGN' ));
ENDSEC;

DATA;
#1 = ORIENTED_EDGE ( 'NONE', *, *, #143, .F. ) ;
#2 = ORIENTED_EDGE ( 'NONE', *, *, #151, .T. ) ;
#3 = DIRECTION ( 'NONE',  ( 1.000000000000000000, 0.0000000000000000000, -3.491481338843133355E-15 ) ) ;
#4 = AXIS2_PLACEMENT_3D ( 'NONE', #82, #33, #163 ) ;
#5 = PERSON_AND_ORGANIZATION ( #87, #47 ) ;
#6 = DATE_AND_TIME ( #173, #130 ) ;
#7 = PERSON_AND_ORGANIZATION ( #87, #47 ) ;
#8 = DIRECTION ( 'NONE',  ( 1.000000000000000000, 0.0000000000000000000, 0.0000000000000000000 ) ) ;
#9 = CIRCLE ( 'NONE', #147, 0.8249999999999992895 ) ;
#10 = VERTEX_POINT ( 'NONE', #210 ) ;
#11 = CARTESIAN_POINT ( 'NONE',  ( 0.0000000000000000000, 0.0000000000000000000, 0.0000000000000000000 ) ) ;
#12 = ORIENTED_EDGE ( 'NONE', *, *, #151, .F. ) ;
#13 = DIRECTION ( 'NONE',  ( 0.0000000000000000000, 1.000000000000000000, 0.0000000000000000000 ) ) ;
#14 = CC_DESIGN_PERSON_AND_ORGANIZATION_ASSIGNMENT ( #7, #209, ( #141 ) ) ;
#15 = FACE_OUTER_BOUND ( 'NONE', #134, .T. ) ;
#16 = DIRECTION ( 'NONE',  ( 3.491481338843133355E-15, -0.0000000000000000000, 1.000000000000000000 ) ) ;
#17 = AXIS2_PLACEMENT_3D ( 'NONE', #165, #204, #164 ) ;
#18 = CARTESIAN_POINT ( 'NONE',  ( 1.316288464743861212E-13, -4.616918432785521081E-15, 37.69999999999999574 ) ) ;
#19 = ORIENTED_EDGE ( 'NONE', *, *, #169, .F. ) ;
#20 =( GEOMETRIC_REPRESENTATION_CONTEXT ( 3 ) GLOBAL_UNCERTAINTY_ASSIGNED_CONTEXT ( ( #206 ) ) GLOBAL_UNIT_ASSIGNED_CONTEXT ( ( #54, #140, #104 ) ) REPRESENTATION_CONTEXT ( 'NONE', 'WORKASPACE' ) );
#21 = EDGE_CURVE ( 'NONE', #208, #208, #123, .T. ) ;
#22 = ADVANCED_FACE ( 'NONE', ( #192 ), #45, .F. ) ;
#23 = EDGE_CURVE ( 'NONE', #222, #222, #107, .T. ) ;
#24 = AXIS2_PLACEMENT_3D ( 'NONE', #30, #156, #8 ) ;
#25 = CALENDAR_DATE ( 2021, 10, 11 ) ;
#26 = VERTEX_POINT ( 'NONE', #75 ) ;
#27 = APPROVAL_DATE_TIME ( #6, #51 ) ;
#28 = DATE_AND_TIME ( #196, #74 ) ;
#29 = CIRCLE ( 'NONE', #44, 1.499999999999998446 ) ;
#30 = CARTESIAN_POINT ( 'NONE',  ( 0.0000000000000000000, 0.0000000000000000000, 0.0000000000000000000 ) ) ;
#31 = EDGE_LOOP ( 'NONE', ( #12 ) ) ;
#32 = CC_DESIGN_APPROVAL ( #158, ( #152 ) ) ;
#33 = DIRECTION ( 'NONE',  ( 3.491481338843133355E-15, -1.224646799147353207E-16, 1.000000000000000000 ) ) ;
#34 = CARTESIAN_POINT ( 'NONE',  ( 5.760944209091170036E-15, -2.385244779468116164E-16, 1.649999999999999911 ) ) ;
#35 = AXIS2_PLACEMENT_3D ( 'NONE', #34, #146, #221 ) ;
#36 = FACE_OUTER_BOUND ( 'NONE', #195, .T. ) ;
#37 = ORIENTED_EDGE ( 'NONE', *, *, #23, .F. ) ;
#38 = APPROVAL ( #77, 'UNSPECIFIED' ) ;
#39 = CARTESIAN_POINT ( 'NONE',  ( 5.760944209091168458E-15, 0.0000000000000000000, 1.649999999999999467 ) ) ;
#40 = APPLICATION_CONTEXT ( 'configuration controlled 3d designs of mechanical parts and assemblies' ) ;
#41 = LOCAL_TIME ( 8, 14, 31.00000000000000000, #59 ) ;
#42 = CARTESIAN_POINT ( 'NONE',  ( 0.8250000000000050626, 0.0000000000000000000, 1.649999999999995692 ) ) ;
#43 = PERSON_AND_ORGANIZATION_ROLE ( 'creator' ) ;
#44 = AXIS2_PLACEMENT_3D ( 'NONE', #18, #223, #115 ) ;
#45 = PLANE ( 'NONE',  #80 ) ;
#46 = DIRECTION ( 'NONE',  ( 4.275831445896958607E-31, 1.000000000000000000, 1.224646799147352961E-16 ) ) ;
#47 = ORGANIZATION ( 'UNSPECIFIED', 'UNSPECIFIED', '' ) ;
#48 = EDGE_LOOP ( 'NONE', ( #185 ) ) ;
#49 = DIRECTION ( 'NONE',  ( 0.0000000000000000000, 1.000000000000000000, 0.0000000000000000000 ) ) ;
#50 = DIRECTION ( 'NONE',  ( 4.275831445896958607E-31, 1.000000000000000000, 1.224646799147353207E-16 ) ) ;
#51 = APPROVAL ( #71, 'UNSPECIFIED' ) ;
#52 = PERSON_AND_ORGANIZATION ( #87, #47 ) ;
#53 = DATE_TIME_ROLE ( 'classification_date' ) ;
#54 =( LENGTH_UNIT ( ) NAMED_UNIT ( * ) SI_UNIT ( .MILLI., .METRE. ) );
#55 = AXIS2_PLACEMENT_3D ( 'NONE', #131, #182, #49 ) ;
#56 = PERSON_AND_ORGANIZATION_ROLE ( 'design_supplier' ) ;
#57 = VERTEX_POINT ( 'NONE', #58 ) ;
#58 = CARTESIAN_POINT ( 'NONE',  ( 0.8250000000000050626, 0.0000000000000000000, 1.649999999999995692 ) ) ;
#59 = COORDINATED_UNIVERSAL_TIME_OFFSET ( 1, 0, .AHEAD. ) ;
#60 = DIRECTION ( 'NONE',  ( -4.275831445896958607E-31, -1.000000000000000000, -1.224646799147353207E-16 ) ) ;
#61 = LOCAL_TIME ( 8, 14, 31.00000000000000000, #125 ) ;
#62 = APPROVAL_ROLE ( '' ) ;
#63 = DIRECTION ( 'NONE',  ( -3.491481338843133355E-15, 1.224646799147353207E-16, -1.000000000000000000 ) ) ;
#64 = FACE_OUTER_BOUND ( 'NONE', #48, .T. ) ;
#65 = CARTESIAN_POINT ( 'NONE',  ( 5.760944209091164514E-15, 0.0000000000000000000, 1.649999999999998579 ) ) ;
#66 = ORIENTED_EDGE ( 'NONE', *, *, #21, .F. ) ;
#67 = MANIFOLD_SOLID_BREP ( 'Corps-Déplacer/Copier1[1]', #99 ) ;
#68 = ADVANCED_FACE ( 'NONE', ( #128, #93 ), #181, .T. ) ;
#69 = APPROVAL_PERSON_ORGANIZATION ( #5, #51, #155 ) ;
#70 = COORDINATED_UNIVERSAL_TIME_OFFSET ( 1, 0, .AHEAD. ) ;
#71 = APPROVAL_STATUS ( 'not_yet_approved' ) ;
#72 = MECHANICAL_CONTEXT ( 'NONE', #40, 'mechanical' ) ;
#73 = CC_DESIGN_PERSON_AND_ORGANIZATION_ASSIGNMENT ( #122, #159, ( #179 ) ) ;
#74 = LOCAL_TIME ( 8, 14, 31.00000000000000000, #138 ) ;
#75 = CARTESIAN_POINT ( 'NONE',  ( 1.316288464743861212E-13, 1.499999999999994005, 37.69999999999999574 ) ) ;
#76 = DIRECTION ( 'NONE',  ( 1.000000000000000000, 0.0000000000000000000, -3.491481338843133355E-15 ) ) ;
#77 = APPROVAL_STATUS ( 'not_yet_approved' ) ;
#78 = DIRECTION ( 'NONE',  ( 3.491481338843133355E-15, -1.224646799147353207E-16, 1.000000000000000000 ) ) ;
#79 = VERTEX_POINT ( 'NONE', #106 ) ;
#80 = AXIS2_PLACEMENT_3D ( 'NONE', #108, #78, #60 ) ;
#81 = DIRECTION ( 'NONE',  ( 1.000000000000000000, 0.0000000000000000000, -3.491481338843133355E-15 ) ) ;
#82 = CARTESIAN_POINT ( 'NONE',  ( 5.760944209091170036E-15, -2.385244779468116164E-16, 1.649999999999999911 ) ) ;
#83 = PLANE ( 'NONE',  #35 ) ;
#84 = AXIS2_PLACEMENT_3D ( 'NONE', #11, #126, #76 ) ;
#85 = FACE_OUTER_BOUND ( 'NONE', #101, .T. ) ;
#86 = EDGE_LOOP ( 'NONE', ( #171 ) ) ;
#87 = PERSON ( 'UNSPECIFIED', 'UNSPECIFIED', 'UNSPECIFIED', ('UNSPECIFIED'), ('UNSPECIFIED'), ('UNSPECIFIED') ) ;
#88 = ORIENTED_EDGE ( 'NONE', *, *, #143, .T. ) ;
#89 = AXIS2_PLACEMENT_3D ( 'NONE', #39, #103, #3 ) ;
#90 = CLOSED_SHELL ( 'NONE', ( #135, #68, #22 ) ) ;
#91 = APPROVAL_DATE_TIME ( #198, #158 ) ;
#92 = PERSON_AND_ORGANIZATION ( #87, #47 ) ;
#93 = FACE_OUTER_BOUND ( 'NONE', #102, .T. ) ;
#94 = CONICAL_SURFACE ( 'NONE', #116, 1.199999999999998845, 0.7853981633974450594 ) ;
#95 = CARTESIAN_POINT ( 'NONE',  ( 0.0000000000000000000, 0.0000000000000000000, 0.0000000000000000000 ) ) ;
#96 = CC_DESIGN_PERSON_AND_ORGANIZATION_ASSIGNMENT ( #118, #43, ( #152 ) ) ;
#97 = FACE_OUTER_BOUND ( 'NONE', #207, .T. ) ;
#98 = DIRECTION ( 'NONE',  ( 1.000000000000000000, 0.0000000000000000000, -3.416879573893713788E-15 ) ) ;
#99 = CLOSED_SHELL ( 'NONE', ( #129, #114, #178, #205, #100 ) ) ;
#100 = ADVANCED_FACE ( 'NONE', ( #144 ), #180, .F. ) ;
#101 = EDGE_LOOP ( 'NONE', ( #186 ) ) ;
#102 = EDGE_LOOP ( 'NONE', ( #37 ) ) ;
#103 = DIRECTION ( 'NONE',  ( 3.491481338843133355E-15, -0.0000000000000000000, 1.000000000000000000 ) ) ;
#104 =( NAMED_UNIT ( * ) SI_UNIT ( $, .STERADIAN. ) SOLID_ANGLE_UNIT ( ) );
#105 = PERSON_AND_ORGANIZATION ( #87, #47 ) ;
#106 = CARTESIAN_POINT ( 'NONE',  ( -1.499999999999979350, 0.0000000000000000000, 4.866267246358730425 ) ) ;
#107 = CIRCLE ( 'NONE', #215, 0.8249999999999992895 ) ;
#108 = CARTESIAN_POINT ( 'NONE',  ( -6.413803915257457113E-31, 2.249659577954772199E-32, -1.836986451539393076E-16 ) ) ;
#109 = PERSON_AND_ORGANIZATION_ROLE ( 'creator' ) ;
#110 = DIRECTION ( 'NONE',  ( 1.000000000000000000, 0.0000000000000000000, -3.416879573893713788E-15 ) ) ;
#111 = FACE_OUTER_BOUND ( 'NONE', #149, .T. ) ;
#112 = DIRECTION ( 'NONE',  ( 3.491481338843133355E-15, -0.0000000000000000000, 1.000000000000000000 ) ) ;
#113 = AXIS2_PLACEMENT_3D ( 'NONE', #95, #112, #81 ) ;
#114 = ADVANCED_FACE ( 'NONE', ( #15, #145 ), #94, .T. ) ;
#115 = DIRECTION ( 'NONE',  ( 0.0000000000000000000, 1.000000000000000000, 0.0000000000000000000 ) ) ;
#116 = AXIS2_PLACEMENT_3D ( 'NONE', #142, #217, #13 ) ;
#117 = AXIS2_PLACEMENT_3D ( 'NONE', #199, #63, #46 ) ;
#118 = PERSON_AND_ORGANIZATION ( #87, #47 ) ;
#119 = COORDINATED_UNIVERSAL_TIME_OFFSET ( 1, 0, .AHEAD. ) ;
#120 = CC_DESIGN_APPROVAL ( #38, ( #211 ) ) ;
#121 = APPROVAL_ROLE ( '' ) ;
#122 = PERSON_AND_ORGANIZATION ( #87, #47 ) ;
#123 = CIRCLE ( 'NONE', #84, 0.8249999999999999556 ) ;
#124 = CARTESIAN_POINT ( 'NONE',  ( 5.760944209091164514E-15, 0.0000000000000000000, 1.649999999999998579 ) ) ;
#125 = COORDINATED_UNIVERSAL_TIME_OFFSET ( 1, 0, .AHEAD. ) ;
#126 = DIRECTION ( 'NONE',  ( 3.491481338843133355E-15, -0.0000000000000000000, 1.000000000000000000 ) ) ;
#127 = PRODUCT_RELATED_PRODUCT_CATEGORY ( 'detail', '', ( #179 ) ) ;
#128 = FACE_OUTER_BOUND ( 'NONE', #139, .T. ) ;
#129 = ADVANCED_FACE ( 'NONE', ( #64, #218 ), #200, .T. ) ;
#130 = LOCAL_TIME ( 8, 14, 31.00000000000000000, #119 ) ;
#131 = CARTESIAN_POINT ( 'NONE',  ( 1.326762908760390423E-13, -4.653657836759941941E-15, 38.00000000000000000 ) ) ;
#132 = PLANE ( 'NONE',  #166 ) ;
#133 = CIRCLE ( 'NONE', #55, 1.199999999999998845 ) ;
#134 = EDGE_LOOP ( 'NONE', ( #19 ) ) ;
#135 = ADVANCED_FACE ( 'NONE', ( #111 ), #83, .T. ) ;
#136 = DATE_AND_TIME ( #25, #201 ) ;
#137 = PERSON_AND_ORGANIZATION ( #87, #47 ) ;
#138 = COORDINATED_UNIVERSAL_TIME_OFFSET ( 1, 0, .AHEAD. ) ;
#139 = EDGE_LOOP ( 'NONE', ( #183 ) ) ;
#140 =( NAMED_UNIT ( * ) PLANE_ANGLE_UNIT ( ) SI_UNIT ( $, .RADIAN. ) );
#141 = SECURITY_CLASSIFICATION ( '', '', #153 ) ;
#142 = CARTESIAN_POINT ( 'NONE',  ( 1.326762908760390423E-13, -4.653657836759941941E-15, 38.00000000000000000 ) ) ;
#143 = EDGE_CURVE ( 'NONE', #79, #79, #184, .T. ) ;
#144 = FACE_OUTER_BOUND ( 'NONE', #31, .T. ) ;
#145 = FACE_BOUND ( 'NONE', #86, .T. ) ;
#146 = DIRECTION ( 'NONE',  ( 3.491481338843133355E-15, -1.224646799147353207E-16, 1.000000000000000000 ) ) ;
#147 = AXIS2_PLACEMENT_3D ( 'NONE', #65, #16, #98 ) ;
#148 = DIRECTION ( 'NONE',  ( -3.491481338843133355E-15, 1.224646799147353207E-16, -1.000000000000000000 ) ) ;
#149 = EDGE_LOOP ( 'NONE', ( #219 ) ) ;
#150 = APPROVAL_PERSON_ORGANIZATION ( #137, #38, #121 ) ;
#151 = EDGE_CURVE ( 'NONE', #57, #57, #9, .T. ) ;
#152 = PRODUCT_DEFINITION_FORMATION_WITH_SPECIFIED_SOURCE ( 'ANY', '', #179, .NOT_KNOWN. ) ;
#153 = SECURITY_CLASSIFICATION_LEVEL ( 'unclassified' ) ;
#154 = MANIFOLD_SOLID_BREP ( 'Corps-Déplacer/Copier1[2]', #90 ) ;
#155 = APPROVAL_ROLE ( '' ) ;
#156 = DIRECTION ( 'NONE',  ( 0.0000000000000000000, 0.0000000000000000000, 1.000000000000000000 ) ) ;
#157 = DATE_TIME_ROLE ( 'creation_date' ) ;
#158 = APPROVAL ( #160, 'UNSPECIFIED' ) ;
#159 = PERSON_AND_ORGANIZATION_ROLE ( 'design_owner' ) ;
#160 = APPROVAL_STATUS ( 'not_yet_approved' ) ;
#161 = EDGE_CURVE ( 'NONE', #10, #10, #133, .T. ) ;
#162 = APPROVAL_PERSON_ORGANIZATION ( #92, #158, #62 ) ;
#163 = DIRECTION ( 'NONE',  ( -4.275831445896958607E-31, -1.000000000000000000, -1.224646799147353207E-16 ) ) ;
#164 = DIRECTION ( 'NONE',  ( -1.000000000000000000, 0.0000000000000000000, 3.469446951953622472E-15 ) ) ;
#165 = CARTESIAN_POINT ( 'NONE',  ( 1.699048128048505213E-14, 0.0000000000000000000, 4.866267246358725984 ) ) ;
#166 = AXIS2_PLACEMENT_3D ( 'NONE', #203, #148, #50 ) ;
#167 = EDGE_LOOP ( 'NONE', ( #66 ) ) ;
#168 = DESIGN_CONTEXT ( 'detailed design', #213, 'design' ) ;
#169 = EDGE_CURVE ( 'NONE', #26, #26, #29, .T. ) ;
#170 = CC_DESIGN_DATE_AND_TIME_ASSIGNMENT ( #28, #157, ( #211 ) ) ;
#171 = ORIENTED_EDGE ( 'NONE', *, *, #161, .T. ) ;
#172 = CARTESIAN_POINT ( 'NONE',  ( 0.8249999999999999556, 0.0000000000000000000, -2.880472104545585018E-15 ) ) ;
#173 = CALENDAR_DATE ( 2021, 10, 11 ) ;
#174 = CC_DESIGN_DATE_AND_TIME_ASSIGNMENT ( #136, #53, ( #141 ) ) ;
#175 = CALENDAR_DATE ( 2021, 10, 11 ) ;
#176 = EDGE_LOOP ( 'NONE', ( #1 ) ) ;
#177 = APPROVAL_DATE_TIME ( #190, #38 ) ;
#178 = ADVANCED_FACE ( 'NONE', ( #85 ), #132, .F. ) ;
#179 = PRODUCT ( '64379', '64379', '', ( #72 ) ) ;
#180 = PLANE ( 'NONE',  #4 ) ;
#181 = CYLINDRICAL_SURFACE ( 'NONE', #113, 0.8249999999999996225 ) ;
#182 = DIRECTION ( 'NONE',  ( -3.491481338843133355E-15, 1.224646799147353207E-16, -1.000000000000000000 ) ) ;
#183 = ORIENTED_EDGE ( 'NONE', *, *, #21, .T. ) ;
#184 = CIRCLE ( 'NONE', #17, 1.499999999999996447 ) ;
#185 = ORIENTED_EDGE ( 'NONE', *, *, #169, .T. ) ;
#186 = ORIENTED_EDGE ( 'NONE', *, *, #161, .F. ) ;
#187 = TOROIDAL_SURFACE ( 'NONE', #89, 8.824999999999999289, 8.000000000000000000 ) ;
#188 = CC_DESIGN_APPROVAL ( #51, ( #141 ) ) ;
#189 = SHAPE_DEFINITION_REPRESENTATION ( #191, #193 ) ;
#190 = DATE_AND_TIME ( #212, #41 ) ;
#191 = PRODUCT_DEFINITION_SHAPE ( 'NONE', 'NONE',  #211 ) ;
#192 = FACE_OUTER_BOUND ( 'NONE', #167, .T. ) ;
#193 = ADVANCED_BREP_SHAPE_REPRESENTATION ( '64379', ( #67, #154, #24 ), #20 ) ;
#194 = CC_DESIGN_SECURITY_CLASSIFICATION ( #141, ( #152 ) ) ;
#195 = EDGE_LOOP ( 'NONE', ( #2 ) ) ;
#196 = CALENDAR_DATE ( 2021, 10, 11 ) ;
#197 = DIRECTION ( 'NONE',  ( 3.491481338843133355E-15, -0.0000000000000000000, 1.000000000000000000 ) ) ;
#198 = DATE_AND_TIME ( #175, #61 ) ;
#199 = CARTESIAN_POINT ( 'NONE',  ( 0.0000000000000000000, 0.0000000000000000000, 0.0000000000000000000 ) ) ;
#200 = CYLINDRICAL_SURFACE ( 'NONE', #117, 1.499999999999996447 ) ;
#201 = LOCAL_TIME ( 8, 14, 31.00000000000000000, #70 ) ;
#202 = CC_DESIGN_PERSON_AND_ORGANIZATION_ASSIGNMENT ( #105, #109, ( #211 ) ) ;
#203 = CARTESIAN_POINT ( 'NONE',  ( 1.326762908760390423E-13, 8.998558695971069014E-33, 38.00000000000000000 ) ) ;
#204 = DIRECTION ( 'NONE',  ( -3.491481338843133355E-15, 0.0000000000000000000, -1.000000000000000000 ) ) ;
#205 = ADVANCED_FACE ( 'NONE', ( #36, #97 ), #187, .F. ) ;
#206 = UNCERTAINTY_MEASURE_WITH_UNIT (LENGTH_MEASURE( 1.000000000000000082E-05 ), #54, 'distance_accuracy_value', 'NONE');
#207 = EDGE_LOOP ( 'NONE', ( #88 ) ) ;
#208 = VERTEX_POINT ( 'NONE', #172 ) ;
#209 = PERSON_AND_ORGANIZATION_ROLE ( 'classification_officer' ) ;
#210 = CARTESIAN_POINT ( 'NONE',  ( 1.326762908760390423E-13, 1.199999999999994182, 38.00000000000000000 ) ) ;
#211 = PRODUCT_DEFINITION ( 'UNKNOWN', '', #152, #168 ) ;
#212 = CALENDAR_DATE ( 2021, 10, 11 ) ;
#213 = APPLICATION_CONTEXT ( 'configuration controlled 3d designs of mechanical parts and assemblies' ) ;
#214 = APPLICATION_PROTOCOL_DEFINITION ( 'international standard', 'config_control_design', 1994, #40 ) ;
#215 = AXIS2_PLACEMENT_3D ( 'NONE', #124, #197, #110 ) ;
#216 = APPLICATION_PROTOCOL_DEFINITION ( 'international standard', 'config_control_design', 1994, #213 ) ;
#217 = DIRECTION ( 'NONE',  ( -3.491481338843133355E-15, 1.224646799147353207E-16, -1.000000000000000000 ) ) ;
#218 = FACE_OUTER_BOUND ( 'NONE', #176, .T. ) ;
#219 = ORIENTED_EDGE ( 'NONE', *, *, #23, .T. ) ;
#220 = CC_DESIGN_PERSON_AND_ORGANIZATION_ASSIGNMENT ( #52, #56, ( #152 ) ) ;
#221 = DIRECTION ( 'NONE',  ( -4.275831445896958607E-31, -1.000000000000000000, -1.224646799147353207E-16 ) ) ;
#222 = VERTEX_POINT ( 'NONE', #42 ) ;
#223 = DIRECTION ( 'NONE',  ( -3.491481338843133355E-15, 1.224646799147353207E-16, -1.000000000000000000 ) ) ;
ENDSEC;
END-ISO-10303-21;
