ISO-10303-21;
HEADER;
FILE_DESCRIPTION (( 'STEP AP203' ),
    '1' );
FILE_NAME ('64378.step',
    '2021-11-10T07:14:31',
    ( '' ),
    ( '' ),
    'SwSTEP 2.0',
    'SolidWorks 2019',
    '' );
FILE_SCHEMA (( 'CONFIG_CONTROL_DESIGN' ));
ENDSEC;

DATA;
#1 = CARTESIAN_POINT ( 'NONE',  ( 5.586370142149011791E-15, 0.0000000000000000000, 1.599999999999999423 ) ) ;
#2 = CC_DESIGN_PERSON_AND_ORGANIZATION_ASSIGNMENT ( #97, #100, ( #71 ) ) ;
#3 = DIRECTION ( 'NONE',  ( -3.491481338843133355E-15, 1.224646799147353207E-16, -1.000000000000000000 ) ) ;
#4 = AXIS2_PLACEMENT_3D ( 'NONE', #109, #3, #111 ) ;
#5 = LOCAL_TIME ( 8, 14, 31.00000000000000000, #37 ) ;
#6 = DIRECTION ( 'NONE',  ( 0.0000000000000000000, 1.000000000000000000, 0.0000000000000000000 ) ) ;
#7 = PERSON_AND_ORGANIZATION_ROLE ( 'design_supplier' ) ;
#8 = VERTEX_POINT ( 'NONE', #176 ) ;
#9 = DIRECTION ( 'NONE',  ( -3.491481338843133355E-15, 1.224646799147353207E-16, -1.000000000000000000 ) ) ;
#10 = PERSON_AND_ORGANIZATION ( #192, #115 ) ;
#11 = AXIS2_PLACEMENT_3D ( 'NONE', #48, #99, #190 ) ;
#12 = EDGE_LOOP ( 'NONE', ( #220 ) ) ;
#13 = ORIENTED_EDGE ( 'NONE', *, *, #44, .F. ) ;
#14 = CARTESIAN_POINT ( 'NONE',  ( 5.586370142149007846E-15, 0.0000000000000000000, 1.599999999999998312 ) ) ;
#15 = AXIS2_PLACEMENT_3D ( 'NONE', #184, #17, #43 ) ;
#16 = DIRECTION ( 'NONE',  ( 3.491481338843133355E-15, -0.0000000000000000000, 1.000000000000000000 ) ) ;
#17 = DIRECTION ( 'NONE',  ( 3.491481338843133355E-15, -1.224646799147353207E-16, 1.000000000000000000 ) ) ;
#18 = DIRECTION ( 'NONE',  ( 0.0000000000000000000, 1.000000000000000000, 0.0000000000000000000 ) ) ;
#19 = ADVANCED_FACE ( 'NONE', ( #124 ), #29, .F. ) ;
#20 = CIRCLE ( 'NONE', #79, 1.499999999999996447 ) ;
#21 = CC_DESIGN_APPROVAL ( #194, ( #164 ) ) ;
#22 = SECURITY_CLASSIFICATION_LEVEL ( 'unclassified' ) ;
#23 = DIRECTION ( 'NONE',  ( 0.0000000000000000000, 0.0000000000000000000, 1.000000000000000000 ) ) ;
#24 = MANIFOLD_SOLID_BREP ( 'Corps-Déplacer/Copier1[2]', #107 ) ;
#25 = CARTESIAN_POINT ( 'NONE',  ( 0.8000000000000000444, 0.0000000000000000000, -2.793185071074506684E-15 ) ) ;
#26 = APPROVAL_PERSON_ORGANIZATION ( #68, #194, #195 ) ;
#27 = DIRECTION ( 'NONE',  ( 4.275831445896958607E-31, 1.000000000000000000, 1.224646799147353207E-16 ) ) ;
#28 = AXIS2_PLACEMENT_3D ( 'NONE', #158, #9, #41 ) ;
#29 = PLANE ( 'NONE',  #103 ) ;
#30 = DIRECTION ( 'NONE',  ( 1.000000000000000000, 0.0000000000000000000, -3.491481338843133355E-15 ) ) ;
#31 = CARTESIAN_POINT ( 'NONE',  ( 1.326762908760390423E-13, 8.998558695971069014E-33, 38.00000000000000000 ) ) ;
#32 = DIRECTION ( 'NONE',  ( 1.000000000000000000, 0.0000000000000000000, -3.491481338843133750E-15 ) ) ;
#33 = CC_DESIGN_PERSON_AND_ORGANIZATION_ASSIGNMENT ( #150, #7, ( #71 ) ) ;
#34 = CC_DESIGN_DATE_AND_TIME_ASSIGNMENT ( #120, #142, ( #164 ) ) ;
#35 = FACE_OUTER_BOUND ( 'NONE', #52, .T. ) ;
#36 = APPLICATION_PROTOCOL_DEFINITION ( 'international standard', 'config_control_design', 1994, #78 ) ;
#37 = COORDINATED_UNIVERSAL_TIME_OFFSET ( 1, 0, .AHEAD. ) ;
#38 = CALENDAR_DATE ( 2021, 10, 11 ) ;
#39 = ORIENTED_EDGE ( 'NONE', *, *, #44, .T. ) ;
#40 = APPROVAL_DATE_TIME ( #223, #77 ) ;
#41 = DIRECTION ( 'NONE',  ( 4.275831445896958607E-31, 1.000000000000000000, 1.224646799147352961E-16 ) ) ;
#42 = CIRCLE ( 'NONE', #82, 0.8000000000000000444 ) ;
#43 = DIRECTION ( 'NONE',  ( -4.275831445896958607E-31, -1.000000000000000000, -1.224646799147353207E-16 ) ) ;
#44 = EDGE_CURVE ( 'NONE', #96, #96, #218, .T. ) ;
#45 = COORDINATED_UNIVERSAL_TIME_OFFSET ( 1, 0, .AHEAD. ) ;
#46 = FACE_OUTER_BOUND ( 'NONE', #67, .T. ) ;
#47 = CALENDAR_DATE ( 2021, 10, 11 ) ;
#48 = CARTESIAN_POINT ( 'NONE',  ( -6.413803915257457113E-31, 2.249659577954772199E-32, -1.836986451539393076E-16 ) ) ;
#49 =( NAMED_UNIT ( * ) PLANE_ANGLE_UNIT ( ) SI_UNIT ( $, .RADIAN. ) );
#50 = PRODUCT ( '64378', '64378', '', ( #117 ) ) ;
#51 = DATE_AND_TIME ( #47, #5 ) ;
#52 = EDGE_LOOP ( 'NONE', ( #163 ) ) ;
#53 = CALENDAR_DATE ( 2021, 10, 11 ) ;
#54 = DATE_TIME_ROLE ( 'classification_date' ) ;
#55 = EDGE_LOOP ( 'NONE', ( #141 ) ) ;
#56 = AXIS2_PLACEMENT_3D ( 'NONE', #14, #16, #125 ) ;
#57 = FACE_OUTER_BOUND ( 'NONE', #12, .T. ) ;
#58 = PLANE ( 'NONE',  #15 ) ;
#59 = CARTESIAN_POINT ( 'NONE',  ( 0.8000000000000060396, 0.0000000000000000000, 1.599999999999995426 ) ) ;
#60 = EDGE_CURVE ( 'NONE', #156, #156, #20, .T. ) ;
#61 = CIRCLE ( 'NONE', #65, 1.199999999999998845 ) ;
#62 = CARTESIAN_POINT ( 'NONE',  ( 1.326762908760390423E-13, -4.653657836759941941E-15, 38.00000000000000000 ) ) ;
#63 = PERSON_AND_ORGANIZATION ( #192, #115 ) ;
#64 = PERSON_AND_ORGANIZATION_ROLE ( 'classification_officer' ) ;
#65 = AXIS2_PLACEMENT_3D ( 'NONE', #62, #81, #6 ) ;
#66 = APPLICATION_PROTOCOL_DEFINITION ( 'international standard', 'config_control_design', 1994, #165 ) ;
#67 = EDGE_LOOP ( 'NONE', ( #219 ) ) ;
#68 = PERSON_AND_ORGANIZATION ( #192, #115 ) ;
#69 = EDGE_LOOP ( 'NONE', ( #72 ) ) ;
#70 = EDGE_CURVE ( 'NONE', #8, #8, #98, .T. ) ;
#71 = PRODUCT_DEFINITION_FORMATION_WITH_SPECIFIED_SOURCE ( 'ANY', '', #50, .NOT_KNOWN. ) ;
#72 = ORIENTED_EDGE ( 'NONE', *, *, #70, .F. ) ;
#73 = DIRECTION ( 'NONE',  ( 1.000000000000000000, 0.0000000000000000000, -3.523657060577887833E-15 ) ) ;
#74 = FACE_OUTER_BOUND ( 'NONE', #88, .T. ) ;
#75 = DIRECTION ( 'NONE',  ( -1.000000000000000000, 0.0000000000000000000, 3.469446951953622472E-15 ) ) ;
#76 = DIRECTION ( 'NONE',  ( 3.491481338843133355E-15, -0.0000000000000000000, 1.000000000000000000 ) ) ;
#77 = APPROVAL ( #92, 'UNSPECIFIED' ) ;
#78 = APPLICATION_CONTEXT ( 'configuration controlled 3d designs of mechanical parts and assemblies' ) ;
#79 = AXIS2_PLACEMENT_3D ( 'NONE', #168, #91, #75 ) ;
#80 = APPROVAL_DATE_TIME ( #179, #108 ) ;
#81 = DIRECTION ( 'NONE',  ( -3.491481338843133355E-15, 1.224646799147353207E-16, -1.000000000000000000 ) ) ;
#82 = AXIS2_PLACEMENT_3D ( 'NONE', #130, #94, #170 ) ;
#83 = FACE_OUTER_BOUND ( 'NONE', #145, .T. ) ;
#84 = CYLINDRICAL_SURFACE ( 'NONE', #28, 1.499999999999996447 ) ;
#85 = CARTESIAN_POINT ( 'NONE',  ( -1.499999999999979350, 0.0000000000000000000, 4.872613634390708270 ) ) ;
#86 = EDGE_CURVE ( 'NONE', #174, #174, #42, .T. ) ;
#87 = APPROVAL_PERSON_ORGANIZATION ( #10, #108, #118 ) ;
#88 = EDGE_LOOP ( 'NONE', ( #119 ) ) ;
#89 = CC_DESIGN_PERSON_AND_ORGANIZATION_ASSIGNMENT ( #137, #215, ( #50 ) ) ;
#90 = EDGE_LOOP ( 'NONE', ( #201 ) ) ;
#91 = DIRECTION ( 'NONE',  ( -3.491481338843133355E-15, 0.0000000000000000000, -1.000000000000000000 ) ) ;
#92 = APPROVAL_STATUS ( 'not_yet_approved' ) ;
#93 = CC_DESIGN_DATE_AND_TIME_ASSIGNMENT ( #122, #54, ( #132 ) ) ;
#94 = DIRECTION ( 'NONE',  ( 3.491481338843133355E-15, -0.0000000000000000000, 1.000000000000000000 ) ) ;
#95 = CARTESIAN_POINT ( 'NONE',  ( 1.316288464743861212E-13, -4.616918432785521081E-15, 37.69999999999999574 ) ) ;
#96 = VERTEX_POINT ( 'NONE', #59 ) ;
#97 = PERSON_AND_ORGANIZATION ( #192, #115 ) ;
#98 = CIRCLE ( 'NONE', #138, 0.8000000000000003775 ) ;
#99 = DIRECTION ( 'NONE',  ( 3.491481338843133355E-15, -1.224646799147353207E-16, 1.000000000000000000 ) ) ;
#100 = PERSON_AND_ORGANIZATION_ROLE ( 'creator' ) ;
#101 = CARTESIAN_POINT ( 'NONE',  ( 1.326762908760390423E-13, 1.199999999999994182, 38.00000000000000000 ) ) ;
#102 = COORDINATED_UNIVERSAL_TIME_OFFSET ( 1, 0, .AHEAD. ) ;
#103 = AXIS2_PLACEMENT_3D ( 'NONE', #31, #152, #27 ) ;
#104 = EDGE_LOOP ( 'NONE', ( #181 ) ) ;
#105 = SHAPE_DEFINITION_REPRESENTATION ( #214, #149 ) ;
#106 = PERSON_AND_ORGANIZATION ( #192, #115 ) ;
#107 = CLOSED_SHELL ( 'NONE', ( #180, #216, #154 ) ) ;
#108 = APPROVAL ( #191, 'UNSPECIFIED' ) ;
#109 = CARTESIAN_POINT ( 'NONE',  ( 1.326762908760390423E-13, -4.653657836759941941E-15, 38.00000000000000000 ) ) ;
#110 = DIRECTION ( 'NONE',  ( 3.491481338843133355E-15, -0.0000000000000000000, 1.000000000000000000 ) ) ;
#111 = DIRECTION ( 'NONE',  ( 0.0000000000000000000, 1.000000000000000000, 0.0000000000000000000 ) ) ;
#112 = TOROIDAL_SURFACE ( 'NONE', #222, 8.800000000000000711, 8.000000000000000000 ) ;
#113 = VERTEX_POINT ( 'NONE', #114 ) ;
#114 = CARTESIAN_POINT ( 'NONE',  ( 1.316288464743861212E-13, 1.499999999999994005, 37.69999999999999574 ) ) ;
#115 = ORGANIZATION ( 'UNSPECIFIED', 'UNSPECIFIED', '' ) ;
#116 = PLANE ( 'NONE',  #187 ) ;
#117 = MECHANICAL_CONTEXT ( 'NONE', #78, 'mechanical' ) ;
#118 = APPROVAL_ROLE ( '' ) ;
#119 = ORIENTED_EDGE ( 'NONE', *, *, #86, .T. ) ;
#120 = DATE_AND_TIME ( #199, #155 ) ;
#121 = EDGE_LOOP ( 'NONE', ( #198 ) ) ;
#122 = DATE_AND_TIME ( #53, #212 ) ;
#123 = CONICAL_SURFACE ( 'NONE', #4, 1.199999999999998845, 0.7853981633974450594 ) ;
#124 = FACE_OUTER_BOUND ( 'NONE', #55, .T. ) ;
#125 = DIRECTION ( 'NONE',  ( 1.000000000000000000, 0.0000000000000000000, -3.523657060577887833E-15 ) ) ;
#126 = EDGE_CURVE ( 'NONE', #159, #159, #61, .T. ) ;
#127 = CARTESIAN_POINT ( 'NONE',  ( 5.586370142149007846E-15, 0.0000000000000000000, 1.599999999999998312 ) ) ;
#128 = FACE_OUTER_BOUND ( 'NONE', #104, .T. ) ;
#129 =( GEOMETRIC_REPRESENTATION_CONTEXT ( 3 ) GLOBAL_UNCERTAINTY_ASSIGNED_CONTEXT ( ( #135 ) ) GLOBAL_UNIT_ASSIGNED_CONTEXT ( ( #133, #49, #213 ) ) REPRESENTATION_CONTEXT ( 'NONE', 'WORKASPACE' ) );
#130 = CARTESIAN_POINT ( 'NONE',  ( 0.0000000000000000000, 0.0000000000000000000, 0.0000000000000000000 ) ) ;
#131 = LOCAL_TIME ( 8, 14, 31.00000000000000000, #202 ) ;
#132 = SECURITY_CLASSIFICATION ( '', '', #22 ) ;
#133 =( LENGTH_UNIT ( ) NAMED_UNIT ( * ) SI_UNIT ( .MILLI., .METRE. ) );
#134 = CC_DESIGN_PERSON_AND_ORGANIZATION_ASSIGNMENT ( #63, #64, ( #132 ) ) ;
#135 = UNCERTAINTY_MEASURE_WITH_UNIT (LENGTH_MEASURE( 1.000000000000000082E-05 ), #133, 'distance_accuracy_value', 'NONE');
#136 = CARTESIAN_POINT ( 'NONE',  ( 0.0000000000000000000, 0.0000000000000000000, 0.0000000000000000000 ) ) ;
#137 = PERSON_AND_ORGANIZATION ( #192, #115 ) ;
#138 = AXIS2_PLACEMENT_3D ( 'NONE', #127, #147, #73 ) ;
#139 = DIRECTION ( 'NONE',  ( 3.491481338843133355E-15, -1.224646799147353207E-16, 1.000000000000000000 ) ) ;
#140 = APPROVAL_STATUS ( 'not_yet_approved' ) ;
#141 = ORIENTED_EDGE ( 'NONE', *, *, #126, .F. ) ;
#142 = DATE_TIME_ROLE ( 'creation_date' ) ;
#143 = FACE_OUTER_BOUND ( 'NONE', #217, .T. ) ;
#144 = AXIS2_PLACEMENT_3D ( 'NONE', #136, #23, #211 ) ;
#145 = EDGE_LOOP ( 'NONE', ( #13 ) ) ;
#146 = EDGE_LOOP ( 'NONE', ( #39 ) ) ;
#147 = DIRECTION ( 'NONE',  ( 3.491481338843133355E-15, -0.0000000000000000000, 1.000000000000000000 ) ) ;
#148 = FACE_BOUND ( 'NONE', #90, .T. ) ;
#149 = ADVANCED_BREP_SHAPE_REPRESENTATION ( '64378', ( #167, #24, #144 ), #129 ) ;
#150 = PERSON_AND_ORGANIZATION ( #192, #115 ) ;
#151 = CC_DESIGN_PERSON_AND_ORGANIZATION_ASSIGNMENT ( #209, #162, ( #164 ) ) ;
#152 = DIRECTION ( 'NONE',  ( -3.491481338843133355E-15, 1.224646799147353207E-16, -1.000000000000000000 ) ) ;
#153 = AXIS2_PLACEMENT_3D ( 'NONE', #169, #110, #30 ) ;
#154 = ADVANCED_FACE ( 'NONE', ( #143 ), #175, .F. ) ;
#155 = LOCAL_TIME ( 8, 14, 31.00000000000000000, #102 ) ;
#156 = VERTEX_POINT ( 'NONE', #85 ) ;
#157 = APPROVAL_DATE_TIME ( #51, #194 ) ;
#158 = CARTESIAN_POINT ( 'NONE',  ( 0.0000000000000000000, 0.0000000000000000000, 0.0000000000000000000 ) ) ;
#159 = VERTEX_POINT ( 'NONE', #101 ) ;
#160 = CLOSED_SHELL ( 'NONE', ( #172, #188, #19, #186, #166 ) ) ;
#161 = PRODUCT_RELATED_PRODUCT_CATEGORY ( 'detail', '', ( #50 ) ) ;
#162 = PERSON_AND_ORGANIZATION_ROLE ( 'creator' ) ;
#163 = ORIENTED_EDGE ( 'NONE', *, *, #60, .F. ) ;
#164 = PRODUCT_DEFINITION ( 'UNKNOWN', '', #71, #189 ) ;
#165 = APPLICATION_CONTEXT ( 'configuration controlled 3d designs of mechanical parts and assemblies' ) ;
#166 = ADVANCED_FACE ( 'NONE', ( #83 ), #116, .F. ) ;
#167 = MANIFOLD_SOLID_BREP ( 'Corps-Déplacer/Copier1[1]', #160 ) ;
#168 = CARTESIAN_POINT ( 'NONE',  ( 1.701263957586775682E-14, 0.0000000000000000000, 4.872613634390702941 ) ) ;
#169 = CARTESIAN_POINT ( 'NONE',  ( 0.0000000000000000000, 0.0000000000000000000, 0.0000000000000000000 ) ) ;
#170 = DIRECTION ( 'NONE',  ( 1.000000000000000000, 0.0000000000000000000, -3.491481338843133355E-15 ) ) ;
#171 = DIRECTION ( 'NONE',  ( -3.491481338843133355E-15, 1.224646799147353207E-16, -1.000000000000000000 ) ) ;
#172 = ADVANCED_FACE ( 'NONE', ( #46, #35 ), #84, .T. ) ;
#173 = LOCAL_TIME ( 8, 14, 31.00000000000000000, #197 ) ;
#174 = VERTEX_POINT ( 'NONE', #25 ) ;
#175 = PLANE ( 'NONE',  #11 ) ;
#176 = CARTESIAN_POINT ( 'NONE',  ( 0.8000000000000060396, 0.0000000000000000000, 1.599999999999995426 ) ) ;
#177 = CIRCLE ( 'NONE', #207, 1.499999999999998446 ) ;
#178 = CC_DESIGN_APPROVAL ( #77, ( #132 ) ) ;
#179 = DATE_AND_TIME ( #38, #173 ) ;
#180 = ADVANCED_FACE ( 'NONE', ( #183 ), #58, .T. ) ;
#181 = ORIENTED_EDGE ( 'NONE', *, *, #60, .T. ) ;
#182 = APPROVAL_PERSON_ORGANIZATION ( #106, #77, #200 ) ;
#183 = FACE_OUTER_BOUND ( 'NONE', #121, .T. ) ;
#184 = CARTESIAN_POINT ( 'NONE',  ( 5.586370142149013368E-15, -2.312964634635748873E-16, 1.599999999999999867 ) ) ;
#185 = CYLINDRICAL_SURFACE ( 'NONE', #153, 0.8000000000000001554 ) ;
#186 = ADVANCED_FACE ( 'NONE', ( #206, #128 ), #112, .F. ) ;
#187 = AXIS2_PLACEMENT_3D ( 'NONE', #193, #139, #210 ) ;
#188 = ADVANCED_FACE ( 'NONE', ( #57, #148 ), #123, .T. ) ;
#189 = DESIGN_CONTEXT ( 'detailed design', #165, 'design' ) ;
#190 = DIRECTION ( 'NONE',  ( -4.275831445896958607E-31, -1.000000000000000000, -1.224646799147353207E-16 ) ) ;
#191 = APPROVAL_STATUS ( 'not_yet_approved' ) ;
#192 = PERSON ( 'UNSPECIFIED', 'UNSPECIFIED', 'UNSPECIFIED', ('UNSPECIFIED'), ('UNSPECIFIED'), ('UNSPECIFIED') ) ;
#193 = CARTESIAN_POINT ( 'NONE',  ( 5.586370142149013368E-15, -2.312964634635748873E-16, 1.599999999999999867 ) ) ;
#194 = APPROVAL ( #140, 'UNSPECIFIED' ) ;
#195 = APPROVAL_ROLE ( '' ) ;
#196 = ORIENTED_EDGE ( 'NONE', *, *, #86, .F. ) ;
#197 = COORDINATED_UNIVERSAL_TIME_OFFSET ( 1, 0, .AHEAD. ) ;
#198 = ORIENTED_EDGE ( 'NONE', *, *, #70, .T. ) ;
#199 = CALENDAR_DATE ( 2021, 10, 11 ) ;
#200 = APPROVAL_ROLE ( '' ) ;
#201 = ORIENTED_EDGE ( 'NONE', *, *, #126, .T. ) ;
#202 = COORDINATED_UNIVERSAL_TIME_OFFSET ( 1, 0, .AHEAD. ) ;
#203 = EDGE_CURVE ( 'NONE', #113, #113, #177, .T. ) ;
#204 = FACE_OUTER_BOUND ( 'NONE', #69, .T. ) ;
#205 = CC_DESIGN_SECURITY_CLASSIFICATION ( #132, ( #71 ) ) ;
#206 = FACE_OUTER_BOUND ( 'NONE', #146, .T. ) ;
#207 = AXIS2_PLACEMENT_3D ( 'NONE', #95, #171, #18 ) ;
#208 = CC_DESIGN_APPROVAL ( #108, ( #71 ) ) ;
#209 = PERSON_AND_ORGANIZATION ( #192, #115 ) ;
#210 = DIRECTION ( 'NONE',  ( -4.275831445896958607E-31, -1.000000000000000000, -1.224646799147353207E-16 ) ) ;
#211 = DIRECTION ( 'NONE',  ( 1.000000000000000000, 0.0000000000000000000, 0.0000000000000000000 ) ) ;
#212 = LOCAL_TIME ( 8, 14, 31.00000000000000000, #45 ) ;
#213 =( NAMED_UNIT ( * ) SI_UNIT ( $, .STERADIAN. ) SOLID_ANGLE_UNIT ( ) );
#214 = PRODUCT_DEFINITION_SHAPE ( 'NONE', 'NONE',  #164 ) ;
#215 = PERSON_AND_ORGANIZATION_ROLE ( 'design_owner' ) ;
#216 = ADVANCED_FACE ( 'NONE', ( #74, #204 ), #185, .T. ) ;
#217 = EDGE_LOOP ( 'NONE', ( #196 ) ) ;
#218 = CIRCLE ( 'NONE', #56, 0.8000000000000003775 ) ;
#219 = ORIENTED_EDGE ( 'NONE', *, *, #203, .T. ) ;
#220 = ORIENTED_EDGE ( 'NONE', *, *, #203, .F. ) ;
#221 = CALENDAR_DATE ( 2021, 10, 11 ) ;
#222 = AXIS2_PLACEMENT_3D ( 'NONE', #1, #76, #32 ) ;
#223 = DATE_AND_TIME ( #221, #131 ) ;
ENDSEC;
END-ISO-10303-21;
