ISO-10303-21;
HEADER;
FILE_DESCRIPTION (( 'STEP AP203' ),
    '1' );
FILE_NAME ('64377.step',
    '2021-11-10T07:14:30',
    ( '' ),
    ( '' ),
    'SwSTEP 2.0',
    'SolidWorks 2019',
    '' );
FILE_SCHEMA (( 'CONFIG_CONTROL_DESIGN' ));
ENDSEC;

DATA;
#1 = UNCERTAINTY_MEASURE_WITH_UNIT (LENGTH_MEASURE( 1.000000000000000082E-05 ), #219, 'distance_accuracy_value', 'NONE');
#2 = CC_DESIGN_SECURITY_CLASSIFICATION ( #42, ( #203 ) ) ;
#3 = DIRECTION ( 'NONE',  ( 4.275831445896958607E-31, 1.000000000000000000, 1.224646799147353207E-16 ) ) ;
#4 = AXIS2_PLACEMENT_3D ( 'NONE', #13, #93, #64 ) ;
#5 = APPROVAL_STATUS ( 'not_yet_approved' ) ;
#6 = ORIENTED_EDGE ( 'NONE', *, *, #20, .T. ) ;
#7 = ADVANCED_FACE ( 'NONE', ( #149 ), #46, .T. ) ;
#8 = APPROVAL_PERSON_ORGANIZATION ( #106, #72, #22 ) ;
#9 = ORIENTED_EDGE ( 'NONE', *, *, #150, .T. ) ;
#10 = DIRECTION ( 'NONE',  ( 1.000000000000000000, 0.0000000000000000000, 0.0000000000000000000 ) ) ;
#11 = EDGE_LOOP ( 'NONE', ( #91 ) ) ;
#12 = CARTESIAN_POINT ( 'NONE',  ( 0.0000000000000000000, 0.0000000000000000000, 0.0000000000000000000 ) ) ;
#13 = CARTESIAN_POINT ( 'NONE',  ( 1.316288464743861212E-13, -4.616918432785521081E-15, 37.69999999999999574 ) ) ;
#14 = COORDINATED_UNIVERSAL_TIME_OFFSET ( 1, 0, .AHEAD. ) ;
#15 = FACE_BOUND ( 'NONE', #177, .T. ) ;
#16 = LOCAL_TIME ( 8, 14, 30.00000000000000000, #209 ) ;
#17 = CARTESIAN_POINT ( 'NONE',  ( 1.326762908760390423E-13, -4.653657836759941941E-15, 38.00000000000000000 ) ) ;
#18 = DIRECTION ( 'NONE',  ( 3.491481338843133355E-15, -0.0000000000000000000, 1.000000000000000000 ) ) ;
#19 = EDGE_CURVE ( 'NONE', #92, #92, #88, .T. ) ;
#20 = EDGE_CURVE ( 'NONE', #169, #169, #74, .T. ) ;
#21 = CC_DESIGN_DATE_AND_TIME_ASSIGNMENT ( #107, #73, ( #161 ) ) ;
#22 = APPROVAL_ROLE ( '' ) ;
#23 = ADVANCED_FACE ( 'NONE', ( #147, #130 ), #195, .T. ) ;
#24 = APPROVAL_DATE_TIME ( #122, #85 ) ;
#25 = MANIFOLD_SOLID_BREP ( 'Corps-Déplacer/Copier1[2]', #218 ) ;
#26 = PERSON_AND_ORGANIZATION_ROLE ( 'design_supplier' ) ;
#27 = CIRCLE ( 'NONE', #79, 0.7750000000000000222 ) ;
#28 = MANIFOLD_SOLID_BREP ( 'Corps-Déplacer/Copier1[1]', #186 ) ;
#29 = CC_DESIGN_PERSON_AND_ORGANIZATION_ASSIGNMENT ( #34, #156, ( #117 ) ) ;
#30 = EDGE_LOOP ( 'NONE', ( #78 ) ) ;
#31 = DIRECTION ( 'NONE',  ( 3.491481338843133355E-15, -1.224646799147353207E-16, 1.000000000000000000 ) ) ;
#32 = AXIS2_PLACEMENT_3D ( 'NONE', #182, #197, #82 ) ;
#33 = APPLICATION_PROTOCOL_DEFINITION ( 'international standard', 'config_control_design', 1994, #120 ) ;
#34 = PERSON_AND_ORGANIZATION ( #143, #210 ) ;
#35 = DIRECTION ( 'NONE',  ( 3.491481338843133355E-15, -0.0000000000000000000, 1.000000000000000000 ) ) ;
#36 = DIRECTION ( 'NONE',  ( -3.491481338843133355E-15, 0.0000000000000000000, -1.000000000000000000 ) ) ;
#37 =( GEOMETRIC_REPRESENTATION_CONTEXT ( 3 ) GLOBAL_UNCERTAINTY_ASSIGNED_CONTEXT ( ( #1 ) ) GLOBAL_UNIT_ASSIGNED_CONTEXT ( ( #219, #214, #151 ) ) REPRESENTATION_CONTEXT ( 'NONE', 'WORKASPACE' ) );
#38 = DIRECTION ( 'NONE',  ( -3.491481338843133355E-15, 1.224646799147353207E-16, -1.000000000000000000 ) ) ;
#39 = DESIGN_CONTEXT ( 'detailed design', #77, 'design' ) ;
#40 = AXIS2_PLACEMENT_3D ( 'NONE', #17, #53, #202 ) ;
#41 = CARTESIAN_POINT ( 'NONE',  ( 1.326762908760390423E-13, 8.998558695971069014E-33, 38.00000000000000000 ) ) ;
#42 = SECURITY_CLASSIFICATION ( '', '', #89 ) ;
#43 = PERSON_AND_ORGANIZATION ( #143, #210 ) ;
#44 = CALENDAR_DATE ( 2021, 10, 11 ) ;
#45 = EDGE_LOOP ( 'NONE', ( #126 ) ) ;
#46 = PLANE ( 'NONE',  #32 ) ;
#47 = VERTEX_POINT ( 'NONE', #49 ) ;
#48 = CONICAL_SURFACE ( 'NONE', #40, 1.199999999999998845, 0.7853981633974450594 ) ;
#49 = CARTESIAN_POINT ( 'NONE',  ( 0.7750000000000050182, 0.0000000000000000000, 1.549999999999995604 ) ) ;
#50 = DATE_AND_TIME ( #211, #109 ) ;
#51 = DIRECTION ( 'NONE',  ( 3.491481338843133355E-15, -0.0000000000000000000, 1.000000000000000000 ) ) ;
#52 = CARTESIAN_POINT ( 'NONE',  ( 5.411796075206850390E-15, 0.0000000000000000000, 1.549999999999998268 ) ) ;
#53 = DIRECTION ( 'NONE',  ( -3.491481338843133355E-15, 1.224646799147353207E-16, -1.000000000000000000 ) ) ;
#54 = CC_DESIGN_DATE_AND_TIME_ASSIGNMENT ( #124, #108, ( #42 ) ) ;
#55 = LOCAL_TIME ( 8, 14, 30.00000000000000000, #125 ) ;
#56 = CALENDAR_DATE ( 2021, 10, 11 ) ;
#57 = PERSON_AND_ORGANIZATION ( #143, #210 ) ;
#58 = CIRCLE ( 'NONE', #146, 1.199999999999998845 ) ;
#59 = CALENDAR_DATE ( 2021, 10, 11 ) ;
#60 = ORIENTED_EDGE ( 'NONE', *, *, #145, .F. ) ;
#61 = DIRECTION ( 'NONE',  ( -4.275831445896958607E-31, -1.000000000000000000, -1.224646799147353207E-16 ) ) ;
#62 = EDGE_LOOP ( 'NONE', ( #60 ) ) ;
#63 = CARTESIAN_POINT ( 'NONE',  ( -6.413803915257457113E-31, 2.249659577954772199E-32, -1.836986451539393076E-16 ) ) ;
#64 = DIRECTION ( 'NONE',  ( 0.0000000000000000000, 1.000000000000000000, 0.0000000000000000000 ) ) ;
#65 = DIRECTION ( 'NONE',  ( 3.491481338843133355E-15, -1.224646799147353207E-16, 1.000000000000000000 ) ) ;
#66 = AXIS2_PLACEMENT_3D ( 'NONE', #166, #152, #215 ) ;
#67 = DIRECTION ( 'NONE',  ( 1.000000000000000000, 0.0000000000000000000, -3.491481338843133355E-15 ) ) ;
#68 = ADVANCED_FACE ( 'NONE', ( #135, #154 ), #170, .T. ) ;
#69 = LOCAL_TIME ( 8, 14, 30.00000000000000000, #174 ) ;
#70 = FACE_OUTER_BOUND ( 'NONE', #11, .T. ) ;
#71 = DATE_AND_TIME ( #123, #136 ) ;
#72 = APPROVAL ( #5, 'UNSPECIFIED' ) ;
#73 = DATE_TIME_ROLE ( 'creation_date' ) ;
#74 = CIRCLE ( 'NONE', #4, 1.499999999999998446 ) ;
#75 = PERSON_AND_ORGANIZATION ( #143, #210 ) ;
#76 = EDGE_LOOP ( 'NONE', ( #95 ) ) ;
#77 = APPLICATION_CONTEXT ( 'configuration controlled 3d designs of mechanical parts and assemblies' ) ;
#78 = ORIENTED_EDGE ( 'NONE', *, *, #19, .F. ) ;
#79 = AXIS2_PLACEMENT_3D ( 'NONE', #185, #221, #67 ) ;
#80 = DIRECTION ( 'NONE',  ( 0.0000000000000000000, 0.0000000000000000000, 1.000000000000000000 ) ) ;
#81 = ORIENTED_EDGE ( 'NONE', *, *, #145, .T. ) ;
#82 = DIRECTION ( 'NONE',  ( -4.275831445896958607E-31, -1.000000000000000000, -1.224646799147353207E-16 ) ) ;
#83 = CARTESIAN_POINT ( 'NONE',  ( 0.7750000000000000222, 0.0000000000000000000, -2.705898037603428350E-15 ) ) ;
#84 = CARTESIAN_POINT ( 'NONE',  ( 0.0000000000000000000, 0.0000000000000000000, 0.0000000000000000000 ) ) ;
#85 = APPROVAL ( #190, 'UNSPECIFIED' ) ;
#86 = CARTESIAN_POINT ( 'NONE',  ( 1.703081175871623934E-14, 0.0000000000000000000, 4.877818354417790658 ) ) ;
#87 = TOROIDAL_SURFACE ( 'NONE', #133, 8.775000000000000355, 8.000000000000000000 ) ;
#88 = CIRCLE ( 'NONE', #66, 0.7749999999999996891 ) ;
#89 = SECURITY_CLASSIFICATION_LEVEL ( 'unclassified' ) ;
#90 = SHAPE_DEFINITION_REPRESENTATION ( #121, #165 ) ;
#91 = ORIENTED_EDGE ( 'NONE', *, *, #104, .F. ) ;
#92 = VERTEX_POINT ( 'NONE', #153 ) ;
#93 = DIRECTION ( 'NONE',  ( -3.491481338843133355E-15, 1.224646799147353207E-16, -1.000000000000000000 ) ) ;
#94 = CC_DESIGN_APPROVAL ( #85, ( #42 ) ) ;
#95 = ORIENTED_EDGE ( 'NONE', *, *, #20, .F. ) ;
#96 = APPROVAL_ROLE ( '' ) ;
#97 = CARTESIAN_POINT ( 'NONE',  ( 1.326762908760390423E-13, -4.653657836759941941E-15, 38.00000000000000000 ) ) ;
#98 = DIRECTION ( 'NONE',  ( -4.275831445896958607E-31, -1.000000000000000000, -1.224646799147353207E-16 ) ) ;
#99 = DIRECTION ( 'NONE',  ( 4.275831445896958607E-31, 1.000000000000000000, 1.224646799147352961E-16 ) ) ;
#100 = DIRECTION ( 'NONE',  ( 1.000000000000000000, 0.0000000000000000000, -3.357529308342208488E-15 ) ) ;
#101 = CIRCLE ( 'NONE', #138, 0.7749999999999996891 ) ;
#102 = ADVANCED_FACE ( 'NONE', ( #184, #15 ), #48, .T. ) ;
#103 = DIRECTION ( 'NONE',  ( -3.491481338843133355E-15, 1.224646799147353207E-16, -1.000000000000000000 ) ) ;
#104 = EDGE_CURVE ( 'NONE', #183, #183, #58, .T. ) ;
#105 = CC_DESIGN_APPROVAL ( #72, ( #203 ) ) ;
#106 = PERSON_AND_ORGANIZATION ( #143, #210 ) ;
#107 = DATE_AND_TIME ( #56, #55 ) ;
#108 = DATE_TIME_ROLE ( 'classification_date' ) ;
#109 = LOCAL_TIME ( 8, 14, 30.00000000000000000, #14 ) ;
#110 = EDGE_LOOP ( 'NONE', ( #213 ) ) ;
#111 = EDGE_LOOP ( 'NONE', ( #81 ) ) ;
#112 = APPLICATION_PROTOCOL_DEFINITION ( 'international standard', 'config_control_design', 1994, #77 ) ;
#113 = EDGE_LOOP ( 'NONE', ( #9 ) ) ;
#114 = EDGE_LOOP ( 'NONE', ( #6 ) ) ;
#115 = DIRECTION ( 'NONE',  ( 0.0000000000000000000, 1.000000000000000000, 0.0000000000000000000 ) ) ;
#116 = APPROVAL_PERSON_ORGANIZATION ( #199, #201, #96 ) ;
#117 = PRODUCT ( '64377', '64377', '', ( #164 ) ) ;
#118 = AXIS2_PLACEMENT_3D ( 'NONE', #63, #65, #61 ) ;
#119 = CC_DESIGN_PERSON_AND_ORGANIZATION_ASSIGNMENT ( #57, #176, ( #203 ) ) ;
#120 = APPLICATION_CONTEXT ( 'configuration controlled 3d designs of mechanical parts and assemblies' ) ;
#121 = PRODUCT_DEFINITION_SHAPE ( 'NONE', 'NONE',  #161 ) ;
#122 = DATE_AND_TIME ( #44, #69 ) ;
#123 = CALENDAR_DATE ( 2021, 10, 11 ) ;
#124 = DATE_AND_TIME ( #59, #16 ) ;
#125 = COORDINATED_UNIVERSAL_TIME_OFFSET ( 1, 0, .AHEAD. ) ;
#126 = ORIENTED_EDGE ( 'NONE', *, *, #137, .F. ) ;
#127 = PRODUCT_RELATED_PRODUCT_CATEGORY ( 'detail', '', ( #117 ) ) ;
#128 = APPROVAL_STATUS ( 'not_yet_approved' ) ;
#129 = ORIENTED_EDGE ( 'NONE', *, *, #150, .F. ) ;
#130 = FACE_OUTER_BOUND ( 'NONE', #45, .T. ) ;
#131 = ADVANCED_FACE ( 'NONE', ( #134, #223 ), #87, .F. ) ;
#132 = FACE_OUTER_BOUND ( 'NONE', #191, .T. ) ;
#133 = AXIS2_PLACEMENT_3D ( 'NONE', #200, #35, #157 ) ;
#134 = FACE_OUTER_BOUND ( 'NONE', #113, .T. ) ;
#135 = FACE_OUTER_BOUND ( 'NONE', #111, .T. ) ;
#136 = LOCAL_TIME ( 8, 14, 30.00000000000000000, #208 ) ;
#137 = EDGE_CURVE ( 'NONE', #198, #198, #155, .T. ) ;
#138 = AXIS2_PLACEMENT_3D ( 'NONE', #52, #18, #100 ) ;
#139 = PERSON_AND_ORGANIZATION_ROLE ( 'classification_officer' ) ;
#140 = PERSON_AND_ORGANIZATION ( #143, #210 ) ;
#141 = CC_DESIGN_APPROVAL ( #201, ( #161 ) ) ;
#142 = PLANE ( 'NONE',  #118 ) ;
#143 = PERSON ( 'UNSPECIFIED', 'UNSPECIFIED', 'UNSPECIFIED', ('UNSPECIFIED'), ('UNSPECIFIED'), ('UNSPECIFIED') ) ;
#144 = ORIENTED_EDGE ( 'NONE', *, *, #104, .T. ) ;
#145 = EDGE_CURVE ( 'NONE', #222, #222, #27, .T. ) ;
#146 = AXIS2_PLACEMENT_3D ( 'NONE', #97, #220, #115 ) ;
#147 = FACE_OUTER_BOUND ( 'NONE', #114, .T. ) ;
#148 = CARTESIAN_POINT ( 'NONE',  ( 5.411796075206855912E-15, -2.240684489803382075E-16, 1.549999999999999822 ) ) ;
#149 = FACE_OUTER_BOUND ( 'NONE', #110, .T. ) ;
#150 = EDGE_CURVE ( 'NONE', #47, #47, #101, .T. ) ;
#151 =( NAMED_UNIT ( * ) SI_UNIT ( $, .STERADIAN. ) SOLID_ANGLE_UNIT ( ) );
#152 = DIRECTION ( 'NONE',  ( 3.491481338843133355E-15, -0.0000000000000000000, 1.000000000000000000 ) ) ;
#153 = CARTESIAN_POINT ( 'NONE',  ( 0.7750000000000050182, 0.0000000000000000000, 1.549999999999995604 ) ) ;
#154 = FACE_OUTER_BOUND ( 'NONE', #30, .T. ) ;
#155 = CIRCLE ( 'NONE', #192, 1.499999999999996447 ) ;
#156 = PERSON_AND_ORGANIZATION_ROLE ( 'design_owner' ) ;
#157 = DIRECTION ( 'NONE',  ( 1.000000000000000000, 0.0000000000000000000, -3.491481338843132961E-15 ) ) ;
#158 = CC_DESIGN_PERSON_AND_ORGANIZATION_ASSIGNMENT ( #43, #26, ( #203 ) ) ;
#159 = AXIS2_PLACEMENT_3D ( 'NONE', #148, #31, #98 ) ;
#160 = APPROVAL_DATE_TIME ( #71, #72 ) ;
#161 = PRODUCT_DEFINITION ( 'UNKNOWN', '', #203, #39 ) ;
#162 = APPROVAL_PERSON_ORGANIZATION ( #140, #85, #189 ) ;
#163 = ADVANCED_FACE ( 'NONE', ( #70 ), #205, .F. ) ;
#164 = MECHANICAL_CONTEXT ( 'NONE', #120, 'mechanical' ) ;
#165 = ADVANCED_BREP_SHAPE_REPRESENTATION ( '64377', ( #28, #25, #206 ), #37 ) ;
#166 = CARTESIAN_POINT ( 'NONE',  ( 5.411796075206850390E-15, 0.0000000000000000000, 1.549999999999998268 ) ) ;
#167 = PLANE ( 'NONE',  #159 ) ;
#168 = DIRECTION ( 'NONE',  ( 1.000000000000000000, 0.0000000000000000000, -3.491481338843133355E-15 ) ) ;
#169 = VERTEX_POINT ( 'NONE', #216 ) ;
#170 = CYLINDRICAL_SURFACE ( 'NONE', #175, 0.7749999999999999112 ) ;
#171 = DIRECTION ( 'NONE',  ( -1.000000000000000000, 0.0000000000000000000, 3.469446951953622472E-15 ) ) ;
#172 = CC_DESIGN_PERSON_AND_ORGANIZATION_ASSIGNMENT ( #75, #139, ( #42 ) ) ;
#173 = FACE_OUTER_BOUND ( 'NONE', #62, .T. ) ;
#174 = COORDINATED_UNIVERSAL_TIME_OFFSET ( 1, 0, .AHEAD. ) ;
#175 = AXIS2_PLACEMENT_3D ( 'NONE', #84, #51, #168 ) ;
#176 = PERSON_AND_ORGANIZATION_ROLE ( 'creator' ) ;
#177 = EDGE_LOOP ( 'NONE', ( #144 ) ) ;
#178 = ADVANCED_FACE ( 'NONE', ( #173 ), #142, .F. ) ;
#179 = PERSON_AND_ORGANIZATION ( #143, #210 ) ;
#180 = CARTESIAN_POINT ( 'NONE',  ( 0.0000000000000000000, 0.0000000000000000000, 0.0000000000000000000 ) ) ;
#181 = CARTESIAN_POINT ( 'NONE',  ( -1.499999999999979128, 0.0000000000000000000, 4.877818354417795987 ) ) ;
#182 = CARTESIAN_POINT ( 'NONE',  ( 5.411796075206855912E-15, -2.240684489803382075E-16, 1.549999999999999822 ) ) ;
#183 = VERTEX_POINT ( 'NONE', #196 ) ;
#184 = FACE_OUTER_BOUND ( 'NONE', #76, .T. ) ;
#185 = CARTESIAN_POINT ( 'NONE',  ( 0.0000000000000000000, 0.0000000000000000000, 0.0000000000000000000 ) ) ;
#186 = CLOSED_SHELL ( 'NONE', ( #23, #102, #163, #131, #204 ) ) ;
#187 = PERSON_AND_ORGANIZATION_ROLE ( 'creator' ) ;
#188 = AXIS2_PLACEMENT_3D ( 'NONE', #180, #38, #99 ) ;
#189 = APPROVAL_ROLE ( '' ) ;
#190 = APPROVAL_STATUS ( 'not_yet_approved' ) ;
#191 = EDGE_LOOP ( 'NONE', ( #129 ) ) ;
#192 = AXIS2_PLACEMENT_3D ( 'NONE', #86, #36, #171 ) ;
#193 = EDGE_LOOP ( 'NONE', ( #217 ) ) ;
#194 = APPROVAL_DATE_TIME ( #50, #201 ) ;
#195 = CYLINDRICAL_SURFACE ( 'NONE', #188, 1.499999999999996447 ) ;
#196 = CARTESIAN_POINT ( 'NONE',  ( 1.326762908760390423E-13, 1.199999999999994182, 38.00000000000000000 ) ) ;
#197 = DIRECTION ( 'NONE',  ( 3.491481338843133355E-15, -1.224646799147353207E-16, 1.000000000000000000 ) ) ;
#198 = VERTEX_POINT ( 'NONE', #181 ) ;
#199 = PERSON_AND_ORGANIZATION ( #143, #210 ) ;
#200 = CARTESIAN_POINT ( 'NONE',  ( 5.411796075206854334E-15, 0.0000000000000000000, 1.549999999999999378 ) ) ;
#201 = APPROVAL ( #128, 'UNSPECIFIED' ) ;
#202 = DIRECTION ( 'NONE',  ( 0.0000000000000000000, 1.000000000000000000, 0.0000000000000000000 ) ) ;
#203 = PRODUCT_DEFINITION_FORMATION_WITH_SPECIFIED_SOURCE ( 'ANY', '', #117, .NOT_KNOWN. ) ;
#204 = ADVANCED_FACE ( 'NONE', ( #132 ), #167, .F. ) ;
#205 = PLANE ( 'NONE',  #212 ) ;
#206 = AXIS2_PLACEMENT_3D ( 'NONE', #12, #80, #10 ) ;
#207 = CC_DESIGN_PERSON_AND_ORGANIZATION_ASSIGNMENT ( #179, #187, ( #161 ) ) ;
#208 = COORDINATED_UNIVERSAL_TIME_OFFSET ( 1, 0, .AHEAD. ) ;
#209 = COORDINATED_UNIVERSAL_TIME_OFFSET ( 1, 0, .AHEAD. ) ;
#210 = ORGANIZATION ( 'UNSPECIFIED', 'UNSPECIFIED', '' ) ;
#211 = CALENDAR_DATE ( 2021, 10, 11 ) ;
#212 = AXIS2_PLACEMENT_3D ( 'NONE', #41, #103, #3 ) ;
#213 = ORIENTED_EDGE ( 'NONE', *, *, #19, .T. ) ;
#214 =( NAMED_UNIT ( * ) PLANE_ANGLE_UNIT ( ) SI_UNIT ( $, .RADIAN. ) );
#215 = DIRECTION ( 'NONE',  ( 1.000000000000000000, 0.0000000000000000000, -3.357529308342208488E-15 ) ) ;
#216 = CARTESIAN_POINT ( 'NONE',  ( 1.316288464743861212E-13, 1.499999999999994005, 37.69999999999999574 ) ) ;
#217 = ORIENTED_EDGE ( 'NONE', *, *, #137, .T. ) ;
#218 = CLOSED_SHELL ( 'NONE', ( #7, #68, #178 ) ) ;
#219 =( LENGTH_UNIT ( ) NAMED_UNIT ( * ) SI_UNIT ( .MILLI., .METRE. ) );
#220 = DIRECTION ( 'NONE',  ( -3.491481338843133355E-15, 1.224646799147353207E-16, -1.000000000000000000 ) ) ;
#221 = DIRECTION ( 'NONE',  ( 3.491481338843133355E-15, -0.0000000000000000000, 1.000000000000000000 ) ) ;
#222 = VERTEX_POINT ( 'NONE', #83 ) ;
#223 = FACE_OUTER_BOUND ( 'NONE', #193, .T. ) ;
ENDSEC;
END-ISO-10303-21;
