ISO-10303-21;
HEADER;
FILE_DESCRIPTION (( 'STEP AP203' ),
    '1' );
FILE_NAME ('64376.step',
    '2021-11-10T07:14:30',
    ( '' ),
    ( '' ),
    'SwSTEP 2.0',
    'SolidWorks 2019',
    '' );
FILE_SCHEMA (( 'CONFIG_CONTROL_DESIGN' ));
ENDSEC;

DATA;
#1 = APPROVAL_PERSON_ORGANIZATION ( #127, #7, #162 ) ;
#2 = FACE_OUTER_BOUND ( 'NONE', #240, .T. ) ;
#3 = CARTESIAN_POINT ( 'NONE',  ( 5.062647941322540999E-15, 0.0000000000000000000, 1.449999999999999512 ) ) ;
#4 = EDGE_LOOP ( 'NONE', ( #229 ) ) ;
#5 = CLOSED_SHELL ( 'NONE', ( #86, #93, #194 ) ) ;
#6 = FACE_OUTER_BOUND ( 'NONE', #92, .T. ) ;
#7 = APPROVAL ( #223, 'UNSPECIFIED' ) ;
#8 = DIRECTION ( 'NONE',  ( -3.491481338843133355E-15, 1.224646799147353207E-16, -1.000000000000000000 ) ) ;
#9 = FACE_OUTER_BOUND ( 'NONE', #150, .T. ) ;
#10 = CARTESIAN_POINT ( 'NONE',  ( 1.316288464743861212E-13, 1.499999999999994005, 37.69999999999999574 ) ) ;
#11 = AXIS2_PLACEMENT_3D ( 'NONE', #172, #108, #97 ) ;
#12 = CARTESIAN_POINT ( 'NONE',  ( 1.326762908760390423E-13, 1.199999999999994182, 38.00000000000000000 ) ) ;
#13 = AXIS2_PLACEMENT_3D ( 'NONE', #141, #214, #118 ) ;
#14 = PRODUCT_DEFINITION ( 'UNKNOWN', '', #115, #237 ) ;
#15 = EDGE_LOOP ( 'NONE', ( #177 ) ) ;
#16 = PERSON_AND_ORGANIZATION ( #128, #101 ) ;
#17 = MANIFOLD_SOLID_BREP ( 'Corps-Déplacer/Copier1[1]', #170 ) ;
#18 = APPROVAL_PERSON_ORGANIZATION ( #239, #132, #65 ) ;
#19 = APPROVAL_PERSON_ORGANIZATION ( #200, #231, #69 ) ;
#20 = DIRECTION ( 'NONE',  ( 3.491481338843133355E-15, -0.0000000000000000000, 1.000000000000000000 ) ) ;
#21 = AXIS2_PLACEMENT_3D ( 'NONE', #112, #77, #213 ) ;
#22 = DIRECTION ( 'NONE',  ( 4.275831445896958607E-31, 1.000000000000000000, 1.224646799147352961E-16 ) ) ;
#23 = EDGE_LOOP ( 'NONE', ( #33 ) ) ;
#24 = DIRECTION ( 'NONE',  ( 0.0000000000000000000, 1.000000000000000000, 0.0000000000000000000 ) ) ;
#25 = FACE_BOUND ( 'NONE', #209, .T. ) ;
#26 = CARTESIAN_POINT ( 'NONE',  ( 1.326762908760390423E-13, 8.998558695971069014E-33, 38.00000000000000000 ) ) ;
#27 = VERTEX_POINT ( 'NONE', #94 ) ;
#28 = AXIS2_PLACEMENT_3D ( 'NONE', #182, #183, #44 ) ;
#29 = DIRECTION ( 'NONE',  ( 3.491481338843133355E-15, -1.224646799147353207E-16, 1.000000000000000000 ) ) ;
#30 =( NAMED_UNIT ( * ) PLANE_ANGLE_UNIT ( ) SI_UNIT ( $, .RADIAN. ) );
#31 = CC_DESIGN_DATE_AND_TIME_ASSIGNMENT ( #100, #126, ( #201 ) ) ;
#32 = DATE_AND_TIME ( #51, #67 ) ;
#33 = ORIENTED_EDGE ( 'NONE', *, *, #107, .T. ) ;
#34 = APPROVAL_DATE_TIME ( #198, #132 ) ;
#35 = SHAPE_DEFINITION_REPRESENTATION ( #138, #111 ) ;
#36 = COORDINATED_UNIVERSAL_TIME_OFFSET ( 1, 0, .AHEAD. ) ;
#37 = CC_DESIGN_APPROVAL ( #132, ( #115 ) ) ;
#38 = ORIENTED_EDGE ( 'NONE', *, *, #242, .F. ) ;
#39 = CARTESIAN_POINT ( 'NONE',  ( 1.326762908760390423E-13, -4.653657836759941941E-15, 38.00000000000000000 ) ) ;
#40 = AXIS2_PLACEMENT_3D ( 'NONE', #185, #8, #22 ) ;
#41 = FACE_OUTER_BOUND ( 'NONE', #131, .T. ) ;
#42 = DIRECTION ( 'NONE',  ( 3.491481338843133355E-15, -1.224646799147353207E-16, 1.000000000000000000 ) ) ;
#43 = AXIS2_PLACEMENT_3D ( 'NONE', #59, #42, #188 ) ;
#44 = DIRECTION ( 'NONE',  ( 1.000000000000000000, 0.0000000000000000000, -3.280704325266925930E-15 ) ) ;
#45 = CARTESIAN_POINT ( 'NONE',  ( 0.7249999999999995337, 0.0000000000000000000, -2.531323970661270105E-15 ) ) ;
#46 = FACE_OUTER_BOUND ( 'NONE', #4, .T. ) ;
#47 = CIRCLE ( 'NONE', #148, 1.499999999999998446 ) ;
#48 = CC_DESIGN_PERSON_AND_ORGANIZATION_ASSIGNMENT ( #54, #82, ( #155 ) ) ;
#49 =( LENGTH_UNIT ( ) NAMED_UNIT ( * ) SI_UNIT ( .MILLI., .METRE. ) );
#50 = PERSON_AND_ORGANIZATION ( #128, #101 ) ;
#51 = CALENDAR_DATE ( 2021, 10, 11 ) ;
#52 = CALENDAR_DATE ( 2021, 10, 11 ) ;
#53 = PERSON_AND_ORGANIZATION ( #128, #101 ) ;
#54 = PERSON_AND_ORGANIZATION ( #128, #101 ) ;
#55 = ADVANCED_FACE ( 'NONE', ( #87, #74 ), #58, .T. ) ;
#56 = EDGE_LOOP ( 'NONE', ( #230 ) ) ;
#57 = DIRECTION ( 'NONE',  ( 1.000000000000000000, 0.0000000000000000000, -3.491481338843133355E-15 ) ) ;
#58 = CYLINDRICAL_SURFACE ( 'NONE', #40, 1.499999999999996447 ) ;
#59 = CARTESIAN_POINT ( 'NONE',  ( 5.062647941322542576E-15, -2.096124200138647740E-16, 1.449999999999999956 ) ) ;
#60 = EDGE_LOOP ( 'NONE', ( #226 ) ) ;
#61 = PLANE ( 'NONE',  #158 ) ;
#62 = VERTEX_POINT ( 'NONE', #10 ) ;
#63 = VERTEX_POINT ( 'NONE', #192 ) ;
#64 = DIRECTION ( 'NONE',  ( 0.0000000000000000000, 0.0000000000000000000, 1.000000000000000000 ) ) ;
#65 = APPROVAL_ROLE ( '' ) ;
#66 = CC_DESIGN_DATE_AND_TIME_ASSIGNMENT ( #222, #167, ( #14 ) ) ;
#67 = LOCAL_TIME ( 8, 14, 30.00000000000000000, #36 ) ;
#68 = MECHANICAL_CONTEXT ( 'NONE', #168, 'mechanical' ) ;
#69 = APPROVAL_ROLE ( '' ) ;
#70 = CC_DESIGN_PERSON_AND_ORGANIZATION_ASSIGNMENT ( #50, #102, ( #115 ) ) ;
#71 = CONICAL_SURFACE ( 'NONE', #211, 1.499999999999996225, 0.2617993877991428020 ) ;
#72 = ORIENTED_EDGE ( 'NONE', *, *, #147, .F. ) ;
#73 = DIRECTION ( 'NONE',  ( 1.000000000000000000, 0.0000000000000000000, -3.491481338843133750E-15 ) ) ;
#74 = FACE_OUTER_BOUND ( 'NONE', #60, .T. ) ;
#75 = PLANE ( 'NONE',  #190 ) ;
#76 = CC_DESIGN_PERSON_AND_ORGANIZATION_ASSIGNMENT ( #53, #103, ( #115 ) ) ;
#77 = DIRECTION ( 'NONE',  ( 3.491481338843133355E-15, -0.0000000000000000000, 1.000000000000000000 ) ) ;
#78 = CIRCLE ( 'NONE', #21, 0.7249999999999999778 ) ;
#79 = DIRECTION ( 'NONE',  ( 4.275831445896958607E-31, 1.000000000000000000, 1.224646799147353207E-16 ) ) ;
#80 = CARTESIAN_POINT ( 'NONE',  ( 1.608052137483661841E-14, 0.0000000000000000000, 4.605644371040726881 ) ) ;
#81 = PLANE ( 'NONE',  #116 ) ;
#82 = PERSON_AND_ORGANIZATION_ROLE ( 'design_owner' ) ;
#83 = CALENDAR_DATE ( 2021, 10, 11 ) ;
#84 = CONICAL_SURFACE ( 'NONE', #206, 1.199999999999998845, 0.7853981633974450594 ) ;
#85 = COORDINATED_UNIVERSAL_TIME_OFFSET ( 1, 0, .AHEAD. ) ;
#86 = ADVANCED_FACE ( 'NONE', ( #133 ), #109, .T. ) ;
#87 = FACE_OUTER_BOUND ( 'NONE', #152, .T. ) ;
#88 = DIRECTION ( 'NONE',  ( -4.275831445896958607E-31, -1.000000000000000000, -1.224646799147353207E-16 ) ) ;
#89 = ORIENTED_EDGE ( 'NONE', *, *, #186, .T. ) ;
#90 = EDGE_LOOP ( 'NONE', ( #189 ) ) ;
#91 = LOCAL_TIME ( 8, 14, 30.00000000000000000, #164 ) ;
#92 = EDGE_LOOP ( 'NONE', ( #174 ) ) ;
#93 = ADVANCED_FACE ( 'NONE', ( #225, #2 ), #207, .T. ) ;
#94 = CARTESIAN_POINT ( 'NONE',  ( 1.500000000000012212, 0.0000000000000000000, 4.605644371040721552 ) ) ;
#95 = CARTESIAN_POINT ( 'NONE',  ( -6.413803915257457113E-31, 2.249659577954772199E-32, -1.836986451539393076E-16 ) ) ;
#96 = CC_DESIGN_PERSON_AND_ORGANIZATION_ASSIGNMENT ( #16, #161, ( #201 ) ) ;
#97 = DIRECTION ( 'NONE',  ( 0.0000000000000000000, 1.000000000000000000, 0.0000000000000000000 ) ) ;
#98 = VERTEX_POINT ( 'NONE', #12 ) ;
#99 = DIRECTION ( 'NONE',  ( -3.491481338843133355E-15, 1.224646799147353207E-16, -1.000000000000000000 ) ) ;
#100 = DATE_AND_TIME ( #221, #91 ) ;
#101 = ORGANIZATION ( 'UNSPECIFIED', 'UNSPECIFIED', '' ) ;
#102 = PERSON_AND_ORGANIZATION_ROLE ( 'design_supplier' ) ;
#103 = PERSON_AND_ORGANIZATION_ROLE ( 'creator' ) ;
#104 = DIRECTION ( 'NONE',  ( 3.491481338843133355E-15, -0.0000000000000000000, 1.000000000000000000 ) ) ;
#105 = EDGE_LOOP ( 'NONE', ( #208 ) ) ;
#106 = CIRCLE ( 'NONE', #11, 1.199999999999998845 ) ;
#107 = EDGE_CURVE ( 'NONE', #180, #180, #236, .T. ) ;
#108 = DIRECTION ( 'NONE',  ( -3.491481338843133355E-15, 1.224646799147353207E-16, -1.000000000000000000 ) ) ;
#109 = PLANE ( 'NONE',  #43 ) ;
#110 = FACE_OUTER_BOUND ( 'NONE', #90, .T. ) ;
#111 = ADVANCED_BREP_SHAPE_REPRESENTATION ( '64376', ( #17, #179, #181 ), #166 ) ;
#112 = CARTESIAN_POINT ( 'NONE',  ( 5.062647941322540999E-15, 0.0000000000000000000, 1.449999999999999289 ) ) ;
#113 = ADVANCED_FACE ( 'NONE', ( #110, #25 ), #84, .T. ) ;
#114 = CARTESIAN_POINT ( 'NONE',  ( 1.608052137483661841E-14, 0.0000000000000000000, 4.605644371040726881 ) ) ;
#115 = PRODUCT_DEFINITION_FORMATION_WITH_SPECIFIED_SOURCE ( 'ANY', '', #155, .NOT_KNOWN. ) ;
#116 = AXIS2_PLACEMENT_3D ( 'NONE', #26, #157, #79 ) ;
#117 = FACE_OUTER_BOUND ( 'NONE', #151, .T. ) ;
#118 = DIRECTION ( 'NONE',  ( 1.000000000000000000, 0.0000000000000000000, -3.589083053745118507E-15 ) ) ;
#119 = UNCERTAINTY_MEASURE_WITH_UNIT (LENGTH_MEASURE( 1.000000000000000082E-05 ), #49, 'distance_accuracy_value', 'NONE');
#120 = COORDINATED_UNIVERSAL_TIME_OFFSET ( 1, 0, .AHEAD. ) ;
#121 = ADVANCED_FACE ( 'NONE', ( #6 ), #75, .F. ) ;
#122 = COORDINATED_UNIVERSAL_TIME_OFFSET ( 1, 0, .AHEAD. ) ;
#123 = APPLICATION_CONTEXT ( 'configuration controlled 3d designs of mechanical parts and assemblies' ) ;
#124 = APPROVAL_STATUS ( 'not_yet_approved' ) ;
#125 = ADVANCED_FACE ( 'NONE', ( #171, #41 ), #134, .F. ) ;
#126 = DATE_TIME_ROLE ( 'classification_date' ) ;
#127 = PERSON_AND_ORGANIZATION ( #128, #101 ) ;
#128 = PERSON ( 'UNSPECIFIED', 'UNSPECIFIED', 'UNSPECIFIED', ('UNSPECIFIED'), ('UNSPECIFIED'), ('UNSPECIFIED') ) ;
#129 = AXIS2_PLACEMENT_3D ( 'NONE', #135, #20, #57 ) ;
#130 = DIRECTION ( 'NONE',  ( 3.491481338843133355E-15, -1.224646799147353207E-16, 1.000000000000000000 ) ) ;
#131 = EDGE_LOOP ( 'NONE', ( #72 ) ) ;
#132 = APPROVAL ( #243, 'UNSPECIFIED' ) ;
#133 = FACE_OUTER_BOUND ( 'NONE', #105, .T. ) ;
#134 = TOROIDAL_SURFACE ( 'NONE', #228, 2.725000000000000089, 2.000000000000000000 ) ;
#135 = CARTESIAN_POINT ( 'NONE',  ( 0.0000000000000000000, 0.0000000000000000000, 0.0000000000000000000 ) ) ;
#136 = EDGE_CURVE ( 'NONE', #98, #98, #106, .T. ) ;
#137 = ORIENTED_EDGE ( 'NONE', *, *, #136, .F. ) ;
#138 = PRODUCT_DEFINITION_SHAPE ( 'NONE', 'NONE',  #14 ) ;
#139 = VERTEX_POINT ( 'NONE', #143 ) ;
#140 = APPLICATION_PROTOCOL_DEFINITION ( 'international standard', 'config_control_design', 1994, #168 ) ;
#141 = CARTESIAN_POINT ( 'NONE',  ( 5.062647941322540999E-15, 0.0000000000000000000, 1.449999999999999289 ) ) ;
#142 = CIRCLE ( 'NONE', #220, 1.499999999999996225 ) ;
#143 = CARTESIAN_POINT ( 'NONE',  ( 0.7250000000000050848, 0.0000000000000000000, 1.449999999999996625 ) ) ;
#144 = DIRECTION ( 'NONE',  ( 1.000000000000000000, 0.0000000000000000000, 0.0000000000000000000 ) ) ;
#145 = SECURITY_CLASSIFICATION_LEVEL ( 'unclassified' ) ;
#146 = APPROVAL_DATE_TIME ( #32, #7 ) ;
#147 = EDGE_CURVE ( 'NONE', #232, #232, #176, .T. ) ;
#148 = AXIS2_PLACEMENT_3D ( 'NONE', #210, #99, #160 ) ;
#149 = DIRECTION ( 'NONE',  ( -3.491481338843133355E-15, 1.224646799147353207E-16, -1.000000000000000000 ) ) ;
#150 = EDGE_LOOP ( 'NONE', ( #137 ) ) ;
#151 = EDGE_LOOP ( 'NONE', ( #38 ) ) ;
#152 = EDGE_LOOP ( 'NONE', ( #89 ) ) ;
#153 = LOCAL_TIME ( 8, 14, 30.00000000000000000, #85 ) ;
#154 = ORIENTED_EDGE ( 'NONE', *, *, #136, .T. ) ;
#155 = PRODUCT ( '64376', '64376', '', ( #68 ) ) ;
#156 =( NAMED_UNIT ( * ) SI_UNIT ( $, .STERADIAN. ) SOLID_ANGLE_UNIT ( ) );
#157 = DIRECTION ( 'NONE',  ( -3.491481338843133355E-15, 1.224646799147353207E-16, -1.000000000000000000 ) ) ;
#158 = AXIS2_PLACEMENT_3D ( 'NONE', #95, #29, #234 ) ;
#159 = LOCAL_TIME ( 8, 14, 30.00000000000000000, #120 ) ;
#160 = DIRECTION ( 'NONE',  ( 0.0000000000000000000, 1.000000000000000000, 0.0000000000000000000 ) ) ;
#161 = PERSON_AND_ORGANIZATION_ROLE ( 'classification_officer' ) ;
#162 = APPROVAL_ROLE ( '' ) ;
#163 = EDGE_CURVE ( 'NONE', #63, #63, #78, .T. ) ;
#164 = COORDINATED_UNIVERSAL_TIME_OFFSET ( 1, 0, .AHEAD. ) ;
#165 = APPLICATION_PROTOCOL_DEFINITION ( 'international standard', 'config_control_design', 1994, #123 ) ;
#166 =( GEOMETRIC_REPRESENTATION_CONTEXT ( 3 ) GLOBAL_UNCERTAINTY_ASSIGNED_CONTEXT ( ( #119 ) ) GLOBAL_UNIT_ASSIGNED_CONTEXT ( ( #49, #30, #156 ) ) REPRESENTATION_CONTEXT ( 'NONE', 'WORKASPACE' ) );
#167 = DATE_TIME_ROLE ( 'creation_date' ) ;
#168 = APPLICATION_CONTEXT ( 'configuration controlled 3d designs of mechanical parts and assemblies' ) ;
#169 = ADVANCED_FACE ( 'NONE', ( #9 ), #81, .F. ) ;
#170 = CLOSED_SHELL ( 'NONE', ( #55, #113, #169, #125, #219, #121 ) ) ;
#171 = FACE_OUTER_BOUND ( 'NONE', #56, .T. ) ;
#172 = CARTESIAN_POINT ( 'NONE',  ( 1.326762908760390423E-13, -4.653657836759941941E-15, 38.00000000000000000 ) ) ;
#173 = EDGE_CURVE ( 'NONE', #139, #139, #197, .T. ) ;
#174 = ORIENTED_EDGE ( 'NONE', *, *, #163, .F. ) ;
#175 = DIRECTION ( 'NONE',  ( 1.000000000000000000, 0.0000000000000000000, -3.491481338843132961E-15 ) ) ;
#176 = CIRCLE ( 'NONE', #28, 0.7931483474218600227 ) ;
#177 = ORIENTED_EDGE ( 'NONE', *, *, #147, .T. ) ;
#178 = CARTESIAN_POINT ( 'NONE',  ( 0.0000000000000000000, 0.0000000000000000000, 0.0000000000000000000 ) ) ;
#179 = MANIFOLD_SOLID_BREP ( 'Corps-Déplacer/Copier1[2]', #5 ) ;
#180 = VERTEX_POINT ( 'NONE', #45 ) ;
#181 = AXIS2_PLACEMENT_3D ( 'NONE', #178, #64, #144 ) ;
#182 = CARTESIAN_POINT ( 'NONE',  ( 6.869971673547798168E-15, 0.0000000000000000000, 1.967638090205028112 ) ) ;
#183 = DIRECTION ( 'NONE',  ( 3.491481338843133355E-15, -0.0000000000000000000, 1.000000000000000000 ) ) ;
#184 = PERSON_AND_ORGANIZATION ( #128, #101 ) ;
#185 = CARTESIAN_POINT ( 'NONE',  ( 0.0000000000000000000, 0.0000000000000000000, 0.0000000000000000000 ) ) ;
#186 = EDGE_CURVE ( 'NONE', #62, #62, #47, .T. ) ;
#187 = DIRECTION ( 'NONE',  ( 3.491481338843133355E-15, -0.0000000000000000000, 1.000000000000000000 ) ) ;
#188 = DIRECTION ( 'NONE',  ( -4.275831445896958607E-31, -1.000000000000000000, -1.224646799147353207E-16 ) ) ;
#189 = ORIENTED_EDGE ( 'NONE', *, *, #186, .F. ) ;
#190 = AXIS2_PLACEMENT_3D ( 'NONE', #224, #130, #88 ) ;
#191 = DIRECTION ( 'NONE',  ( 3.491481338843133355E-15, -0.0000000000000000000, 1.000000000000000000 ) ) ;
#192 = CARTESIAN_POINT ( 'NONE',  ( 0.7250000000000050848, 0.0000000000000000000, 1.449999999999996625 ) ) ;
#193 = AXIS2_PLACEMENT_3D ( 'NONE', #205, #104, #175 ) ;
#194 = ADVANCED_FACE ( 'NONE', ( #46 ), #61, .F. ) ;
#195 = DIRECTION ( 'NONE',  ( 1.000000000000000000, 0.0000000000000000000, -3.469446951953622866E-15 ) ) ;
#196 = DIRECTION ( 'NONE',  ( 3.491481338843133355E-15, -0.0000000000000000000, 1.000000000000000000 ) ) ;
#197 = CIRCLE ( 'NONE', #13, 0.7249999999999999778 ) ;
#198 = DATE_AND_TIME ( #83, #153 ) ;
#199 = DATE_AND_TIME ( #52, #159 ) ;
#200 = PERSON_AND_ORGANIZATION ( #128, #101 ) ;
#201 = SECURITY_CLASSIFICATION ( '', '', #145 ) ;
#202 = CC_DESIGN_PERSON_AND_ORGANIZATION_ASSIGNMENT ( #184, #203, ( #14 ) ) ;
#203 = PERSON_AND_ORGANIZATION_ROLE ( 'creator' ) ;
#204 = ORIENTED_EDGE ( 'NONE', *, *, #173, .F. ) ;
#205 = CARTESIAN_POINT ( 'NONE',  ( -1.786038389295302186E-30, 0.0000000000000000000, -5.115417256925931626E-16 ) ) ;
#206 = AXIS2_PLACEMENT_3D ( 'NONE', #39, #149, #24 ) ;
#207 = CYLINDRICAL_SURFACE ( 'NONE', #193, 0.7249999999999997558 ) ;
#208 = ORIENTED_EDGE ( 'NONE', *, *, #173, .T. ) ;
#209 = EDGE_LOOP ( 'NONE', ( #154 ) ) ;
#210 = CARTESIAN_POINT ( 'NONE',  ( 1.316288464743861212E-13, -4.616918432785521081E-15, 37.69999999999999574 ) ) ;
#211 = AXIS2_PLACEMENT_3D ( 'NONE', #80, #196, #195 ) ;
#212 = CC_DESIGN_APPROVAL ( #231, ( #201 ) ) ;
#213 = DIRECTION ( 'NONE',  ( 1.000000000000000000, 0.0000000000000000000, -3.589083053745118507E-15 ) ) ;
#214 = DIRECTION ( 'NONE',  ( 3.491481338843133355E-15, -0.0000000000000000000, 1.000000000000000000 ) ) ;
#215 = CC_DESIGN_APPROVAL ( #7, ( #14 ) ) ;
#216 = CC_DESIGN_SECURITY_CLASSIFICATION ( #201, ( #115 ) ) ;
#217 = DIRECTION ( 'NONE',  ( 1.000000000000000000, 0.0000000000000000000, -3.469446951953622866E-15 ) ) ;
#218 = CALENDAR_DATE ( 2021, 10, 11 ) ;
#219 = ADVANCED_FACE ( 'NONE', ( #233, #117 ), #71, .T. ) ;
#220 = AXIS2_PLACEMENT_3D ( 'NONE', #114, #191, #217 ) ;
#221 = CALENDAR_DATE ( 2021, 10, 11 ) ;
#222 = DATE_AND_TIME ( #218, #227 ) ;
#223 = APPROVAL_STATUS ( 'not_yet_approved' ) ;
#224 = CARTESIAN_POINT ( 'NONE',  ( 5.062647941322542576E-15, -2.096124200138647740E-16, 1.449999999999999956 ) ) ;
#225 = FACE_OUTER_BOUND ( 'NONE', #23, .T. ) ;
#226 = ORIENTED_EDGE ( 'NONE', *, *, #242, .T. ) ;
#227 = LOCAL_TIME ( 8, 14, 30.00000000000000000, #122 ) ;
#228 = AXIS2_PLACEMENT_3D ( 'NONE', #3, #187, #73 ) ;
#229 = ORIENTED_EDGE ( 'NONE', *, *, #107, .F. ) ;
#230 = ORIENTED_EDGE ( 'NONE', *, *, #163, .T. ) ;
#231 = APPROVAL ( #124, 'UNSPECIFIED' ) ;
#232 = VERTEX_POINT ( 'NONE', #235 ) ;
#233 = FACE_BOUND ( 'NONE', #15, .T. ) ;
#234 = DIRECTION ( 'NONE',  ( -4.275831445896958607E-31, -1.000000000000000000, -1.224646799147353207E-16 ) ) ;
#235 = CARTESIAN_POINT ( 'NONE',  ( 0.7931483474218667951, 0.0000000000000000000, 1.967638090205025669 ) ) ;
#236 = CIRCLE ( 'NONE', #129, 0.7249999999999995337 ) ;
#237 = DESIGN_CONTEXT ( 'detailed design', #123, 'design' ) ;
#238 = PRODUCT_RELATED_PRODUCT_CATEGORY ( 'detail', '', ( #155 ) ) ;
#239 = PERSON_AND_ORGANIZATION ( #128, #101 ) ;
#240 = EDGE_LOOP ( 'NONE', ( #204 ) ) ;
#241 = APPROVAL_DATE_TIME ( #199, #231 ) ;
#242 = EDGE_CURVE ( 'NONE', #27, #27, #142, .T. ) ;
#243 = APPROVAL_STATUS ( 'not_yet_approved' ) ;
ENDSEC;
END-ISO-10303-21;
