ISO-10303-21;
HEADER;
FILE_DESCRIPTION (( 'STEP AP203' ),
    '1' );
FILE_NAME ('64375.step',
    '2021-11-10T07:14:29',
    ( '' ),
    ( '' ),
    'SwSTEP 2.0',
    'SolidWorks 2019',
    '' );
FILE_SCHEMA (( 'CONFIG_CONTROL_DESIGN' ));
ENDSEC;

DATA;
#1 = ORIENTED_EDGE ( 'NONE', *, *, #221, .T. ) ;
#2 = CARTESIAN_POINT ( 'NONE',  ( 4.888073874380383542E-15, 0.0000000000000000000, 1.399999999999999023 ) ) ;
#3 = SHAPE_DEFINITION_REPRESENTATION ( #57, #95 ) ;
#4 = AXIS2_PLACEMENT_3D ( 'NONE', #72, #161, #196 ) ;
#5 = UNCERTAINTY_MEASURE_WITH_UNIT (LENGTH_MEASURE( 1.000000000000000082E-05 ), #140, 'distance_accuracy_value', 'NONE');
#6 = CARTESIAN_POINT ( 'NONE',  ( 4.888073874380383542E-15, 0.0000000000000000000, 1.399999999999999023 ) ) ;
#7 = DIRECTION ( 'NONE',  ( -3.491481338843133355E-15, 1.224646799147353207E-16, -1.000000000000000000 ) ) ;
#8 = CARTESIAN_POINT ( 'NONE',  ( 0.0000000000000000000, 0.0000000000000000000, 0.0000000000000000000 ) ) ;
#9 = EDGE_CURVE ( 'NONE', #58, #58, #178, .T. ) ;
#10 = FACE_OUTER_BOUND ( 'NONE', #66, .T. ) ;
#11 = DIRECTION ( 'NONE',  ( -4.275831445896958607E-31, -1.000000000000000000, -1.224646799147353207E-16 ) ) ;
#12 = COORDINATED_UNIVERSAL_TIME_OFFSET ( 1, 0, .AHEAD. ) ;
#13 = APPROVAL_ROLE ( '' ) ;
#14 = ADVANCED_FACE ( 'NONE', ( #217, #15 ), #224, .T. ) ;
#15 = FACE_BOUND ( 'NONE', #41, .T. ) ;
#16 = FACE_OUTER_BOUND ( 'NONE', #39, .T. ) ;
#17 = EDGE_LOOP ( 'NONE', ( #103 ) ) ;
#18 = DIRECTION ( 'NONE',  ( 1.000000000000000000, 0.0000000000000000000, -3.491481338843133355E-15 ) ) ;
#19 = PLANE ( 'NONE',  #89 ) ;
#20 = DIRECTION ( 'NONE',  ( 4.275831445896958607E-31, 1.000000000000000000, 1.224646799147353207E-16 ) ) ;
#21 = CLOSED_SHELL ( 'NONE', ( #122, #28, #193 ) ) ;
#22 = DIRECTION ( 'NONE',  ( 3.491481338843133355E-15, -0.0000000000000000000, 1.000000000000000000 ) ) ;
#23 = CC_DESIGN_DATE_AND_TIME_ASSIGNMENT ( #105, #218, ( #174 ) ) ;
#24 =( NAMED_UNIT ( * ) PLANE_ANGLE_UNIT ( ) SI_UNIT ( $, .RADIAN. ) );
#25 = ORIENTED_EDGE ( 'NONE', *, *, #91, .T. ) ;
#26 = PERSON_AND_ORGANIZATION ( #29, #189 ) ;
#27 = PERSON_AND_ORGANIZATION ( #29, #189 ) ;
#28 = ADVANCED_FACE ( 'NONE', ( #223, #110 ), #147, .T. ) ;
#29 = PERSON ( 'UNSPECIFIED', 'UNSPECIFIED', 'UNSPECIFIED', ('UNSPECIFIED'), ('UNSPECIFIED'), ('UNSPECIFIED') ) ;
#30 = PERSON_AND_ORGANIZATION ( #29, #189 ) ;
#31 = APPROVAL_ROLE ( '' ) ;
#32 =( GEOMETRIC_REPRESENTATION_CONTEXT ( 3 ) GLOBAL_UNCERTAINTY_ASSIGNED_CONTEXT ( ( #5 ) ) GLOBAL_UNIT_ASSIGNED_CONTEXT ( ( #140, #24, #84 ) ) REPRESENTATION_CONTEXT ( 'NONE', 'WORKASPACE' ) );
#33 = ORIENTED_EDGE ( 'NONE', *, *, #59, .F. ) ;
#34 = ORIENTED_EDGE ( 'NONE', *, *, #9, .F. ) ;
#35 = CARTESIAN_POINT ( 'NONE',  ( 1.500000000000012434, 0.0000000000000000000, 4.648945641229948578 ) ) ;
#36 = AXIS2_PLACEMENT_3D ( 'NONE', #63, #97, #83 ) ;
#37 = CC_DESIGN_PERSON_AND_ORGANIZATION_ASSIGNMENT ( #163, #241, ( #117 ) ) ;
#38 = CARTESIAN_POINT ( 'NONE',  ( 4.888073874380385909E-15, -2.023844055306280203E-16, 1.399999999999999689 ) ) ;
#39 = EDGE_LOOP ( 'NONE', ( #206 ) ) ;
#40 = FACE_OUTER_BOUND ( 'NONE', #191, .T. ) ;
#41 = EDGE_LOOP ( 'NONE', ( #143 ) ) ;
#42 = CARTESIAN_POINT ( 'NONE',  ( 0.0000000000000000000, 0.0000000000000000000, 0.0000000000000000000 ) ) ;
#43 = APPROVAL_ROLE ( '' ) ;
#44 = APPROVAL_DATE_TIME ( #135, #198 ) ;
#45 = MECHANICAL_CONTEXT ( 'NONE', #118, 'mechanical' ) ;
#46 = CIRCLE ( 'NONE', #81, 1.499999999999998446 ) ;
#47 = DATE_AND_TIME ( #177, #90 ) ;
#48 = APPROVAL ( #86, 'UNSPECIFIED' ) ;
#49 = APPROVAL_DATE_TIME ( #47, #48 ) ;
#50 = ORIENTED_EDGE ( 'NONE', *, *, #212, .F. ) ;
#51 = CALENDAR_DATE ( 2021, 10, 11 ) ;
#52 = LOCAL_TIME ( 8, 14, 29.00000000000000000, #197 ) ;
#53 = EDGE_LOOP ( 'NONE', ( #115 ) ) ;
#54 = AXIS2_PLACEMENT_3D ( 'NONE', #6, #22, #190 ) ;
#55 = ADVANCED_FACE ( 'NONE', ( #40 ), #80, .F. ) ;
#56 = ORIENTED_EDGE ( 'NONE', *, *, #208, .F. ) ;
#57 = PRODUCT_DEFINITION_SHAPE ( 'NONE', 'NONE',  #117 ) ;
#58 = VERTEX_POINT ( 'NONE', #202 ) ;
#59 = EDGE_CURVE ( 'NONE', #94, #94, #61, .T. ) ;
#60 = DIRECTION ( 'NONE',  ( 3.491481338843133355E-15, -1.224646799147353207E-16, 1.000000000000000000 ) ) ;
#61 = CIRCLE ( 'NONE', #111, 1.499999999999996225 ) ;
#62 = APPROVAL_PERSON_ORGANIZATION ( #106, #170, #31 ) ;
#63 = CARTESIAN_POINT ( 'NONE',  ( 1.623170695165050625E-14, 0.0000000000000000000, 4.648945641229953907 ) ) ;
#64 = FACE_OUTER_BOUND ( 'NONE', #109, .T. ) ;
#65 = DIRECTION ( 'NONE',  ( 4.275831445896958607E-31, 1.000000000000000000, 1.224646799147352961E-16 ) ) ;
#66 = EDGE_LOOP ( 'NONE', ( #33 ) ) ;
#67 = APPROVAL_STATUS ( 'not_yet_approved' ) ;
#68 = PERSON_AND_ORGANIZATION_ROLE ( 'design_supplier' ) ;
#69 = PERSON_AND_ORGANIZATION_ROLE ( 'classification_officer' ) ;
#70 = CALENDAR_DATE ( 2021, 10, 11 ) ;
#71 = CIRCLE ( 'NONE', #145, 0.6999999999999996225 ) ;
#72 = CARTESIAN_POINT ( 'NONE',  ( 1.326762908760390423E-13, -4.653657836759941941E-15, 38.00000000000000000 ) ) ;
#73 = MANIFOLD_SOLID_BREP ( 'Corps-Déplacer/Copier1[1]', #101 ) ;
#74 = CC_DESIGN_PERSON_AND_ORGANIZATION_ASSIGNMENT ( #195, #237, ( #138 ) ) ;
#75 = ORIENTED_EDGE ( 'NONE', *, *, #208, .T. ) ;
#76 = EDGE_LOOP ( 'NONE', ( #200 ) ) ;
#77 = CONICAL_SURFACE ( 'NONE', #36, 1.499999999999996225, 0.2617993877991428020 ) ;
#78 = FACE_OUTER_BOUND ( 'NONE', #17, .T. ) ;
#79 = DIRECTION ( 'NONE',  ( -4.275831445896958607E-31, -1.000000000000000000, -1.224646799147353207E-16 ) ) ;
#80 = PLANE ( 'NONE',  #219 ) ;
#81 = AXIS2_PLACEMENT_3D ( 'NONE', #112, #7, #92 ) ;
#82 = CARTESIAN_POINT ( 'NONE',  ( -1.786038389295302186E-30, 0.0000000000000000000, -5.115417256925931626E-16 ) ) ;
#83 = DIRECTION ( 'NONE',  ( 1.000000000000000000, 0.0000000000000000000, -3.469446951953622866E-15 ) ) ;
#84 =( NAMED_UNIT ( * ) SI_UNIT ( $, .STERADIAN. ) SOLID_ANGLE_UNIT ( ) );
#85 = DIRECTION ( 'NONE',  ( 3.491481338843133355E-15, -0.0000000000000000000, 1.000000000000000000 ) ) ;
#86 = APPROVAL_STATUS ( 'not_yet_approved' ) ;
#87 = DIRECTION ( 'NONE',  ( 0.0000000000000000000, 0.0000000000000000000, 1.000000000000000000 ) ) ;
#88 = SECURITY_CLASSIFICATION_LEVEL ( 'unclassified' ) ;
#89 = AXIS2_PLACEMENT_3D ( 'NONE', #132, #210, #79 ) ;
#90 = LOCAL_TIME ( 8, 14, 29.00000000000000000, #99 ) ;
#91 = EDGE_CURVE ( 'NONE', #159, #159, #71, .T. ) ;
#92 = DIRECTION ( 'NONE',  ( 0.0000000000000000000, 1.000000000000000000, 0.0000000000000000000 ) ) ;
#93 = DIRECTION ( 'NONE',  ( 3.491481338843133355E-15, -0.0000000000000000000, 1.000000000000000000 ) ) ;
#94 = VERTEX_POINT ( 'NONE', #35 ) ;
#95 = ADVANCED_BREP_SHAPE_REPRESENTATION ( '64375', ( #73, #236, #239 ), #32 ) ;
#96 = DIRECTION ( 'NONE',  ( 3.491481338843133355E-15, -0.0000000000000000000, 1.000000000000000000 ) ) ;
#97 = DIRECTION ( 'NONE',  ( 3.491481338843133355E-15, -0.0000000000000000000, 1.000000000000000000 ) ) ;
#98 = DATE_AND_TIME ( #70, #113 ) ;
#99 = COORDINATED_UNIVERSAL_TIME_OFFSET ( 1, 0, .AHEAD. ) ;
#100 = CC_DESIGN_PERSON_AND_ORGANIZATION_ASSIGNMENT ( #26, #68, ( #138 ) ) ;
#101 = CLOSED_SHELL ( 'NONE', ( #166, #14, #55, #141, #139, #158 ) ) ;
#102 = APPLICATION_PROTOCOL_DEFINITION ( 'international standard', 'config_control_design', 1994, #226 ) ;
#103 = ORIENTED_EDGE ( 'NONE', *, *, #91, .F. ) ;
#104 = CARTESIAN_POINT ( 'NONE',  ( 0.7681483474218659957, 0.0000000000000000000, 1.917638090205025403 ) ) ;
#105 = DATE_AND_TIME ( #125, #52 ) ;
#106 = PERSON_AND_ORGANIZATION ( #29, #189 ) ;
#107 = EDGE_LOOP ( 'NONE', ( #50 ) ) ;
#108 = CC_DESIGN_PERSON_AND_ORGANIZATION_ASSIGNMENT ( #157, #69, ( #174 ) ) ;
#109 = EDGE_LOOP ( 'NONE', ( #75 ) ) ;
#110 = FACE_OUTER_BOUND ( 'NONE', #126, .T. ) ;
#111 = AXIS2_PLACEMENT_3D ( 'NONE', #146, #228, #232 ) ;
#112 = CARTESIAN_POINT ( 'NONE',  ( 1.316288464743861212E-13, -4.616918432785521081E-15, 37.69999999999999574 ) ) ;
#113 = LOCAL_TIME ( 8, 14, 29.00000000000000000, #12 ) ;
#114 = DIRECTION ( 'NONE',  ( 0.0000000000000000000, 1.000000000000000000, 0.0000000000000000000 ) ) ;
#115 = ORIENTED_EDGE ( 'NONE', *, *, #9, .T. ) ;
#116 = CARTESIAN_POINT ( 'NONE',  ( 6.695397606605640712E-15, 0.0000000000000000000, 1.917638090205028067 ) ) ;
#117 = PRODUCT_DEFINITION ( 'UNKNOWN', '', #138, #225 ) ;
#118 = APPLICATION_CONTEXT ( 'configuration controlled 3d designs of mechanical parts and assemblies' ) ;
#119 = CARTESIAN_POINT ( 'NONE',  ( -6.413803915257457113E-31, 2.249659577954772199E-32, -1.836986451539393076E-16 ) ) ;
#120 = AXIS2_PLACEMENT_3D ( 'NONE', #2, #85, #154 ) ;
#121 = CC_DESIGN_APPROVAL ( #48, ( #117 ) ) ;
#122 = ADVANCED_FACE ( 'NONE', ( #128 ), #230, .T. ) ;
#123 = APPLICATION_PROTOCOL_DEFINITION ( 'international standard', 'config_control_design', 1994, #118 ) ;
#124 = VERTEX_POINT ( 'NONE', #104 ) ;
#125 = CALENDAR_DATE ( 2021, 10, 11 ) ;
#126 = EDGE_LOOP ( 'NONE', ( #34 ) ) ;
#127 = APPROVAL_PERSON_ORGANIZATION ( #27, #48, #13 ) ;
#128 = FACE_OUTER_BOUND ( 'NONE', #53, .T. ) ;
#129 = AXIS2_PLACEMENT_3D ( 'NONE', #169, #184, #187 ) ;
#130 = CARTESIAN_POINT ( 'NONE',  ( 1.326762908760390423E-13, -4.653657836759941941E-15, 38.00000000000000000 ) ) ;
#131 = EDGE_CURVE ( 'NONE', #240, #240, #173, .T. ) ;
#132 = CARTESIAN_POINT ( 'NONE',  ( 4.888073874380385909E-15, -2.023844055306280203E-16, 1.399999999999999689 ) ) ;
#133 = DIRECTION ( 'NONE',  ( -3.491481338843133355E-15, 1.224646799147353207E-16, -1.000000000000000000 ) ) ;
#134 = CC_DESIGN_APPROVAL ( #170, ( #174 ) ) ;
#135 = DATE_AND_TIME ( #156, #220 ) ;
#136 = VERTEX_POINT ( 'NONE', #238 ) ;
#137 = CARTESIAN_POINT ( 'NONE',  ( 0.6999999999999996225, 0.0000000000000000000, -2.444036937190192165E-15 ) ) ;
#138 = PRODUCT_DEFINITION_FORMATION_WITH_SPECIFIED_SOURCE ( 'ANY', '', #150, .NOT_KNOWN. ) ;
#139 = ADVANCED_FACE ( 'NONE', ( #175, #10 ), #77, .T. ) ;
#140 =( LENGTH_UNIT ( ) NAMED_UNIT ( * ) SI_UNIT ( .MILLI., .METRE. ) );
#141 = ADVANCED_FACE ( 'NONE', ( #64, #176 ), #243, .F. ) ;
#142 = AXIS2_PLACEMENT_3D ( 'NONE', #38, #60, #188 ) ;
#143 = ORIENTED_EDGE ( 'NONE', *, *, #131, .T. ) ;
#144 = APPROVAL_DATE_TIME ( #199, #170 ) ;
#145 = AXIS2_PLACEMENT_3D ( 'NONE', #8, #96, #204 ) ;
#146 = CARTESIAN_POINT ( 'NONE',  ( 1.623170695165050625E-14, 0.0000000000000000000, 4.648945641229953907 ) ) ;
#147 = CYLINDRICAL_SURFACE ( 'NONE', #234, 0.6999999999999996225 ) ;
#148 = CC_DESIGN_PERSON_AND_ORGANIZATION_ASSIGNMENT ( #30, #192, ( #150 ) ) ;
#149 = DIRECTION ( 'NONE',  ( -3.491481338843133355E-15, 1.224646799147353207E-16, -1.000000000000000000 ) ) ;
#150 = PRODUCT ( '64375', '64375', '', ( #45 ) ) ;
#151 = EDGE_LOOP ( 'NONE', ( #1 ) ) ;
#152 = CARTESIAN_POINT ( 'NONE',  ( 1.326762908760390423E-13, 8.998558695971069014E-33, 38.00000000000000000 ) ) ;
#153 = DIRECTION ( 'NONE',  ( 3.491481338843133355E-15, -0.0000000000000000000, 1.000000000000000000 ) ) ;
#154 = DIRECTION ( 'NONE',  ( 1.000000000000000000, 0.0000000000000000000, -3.407492542097301509E-15 ) ) ;
#155 = CARTESIAN_POINT ( 'NONE',  ( 0.0000000000000000000, 0.0000000000000000000, 0.0000000000000000000 ) ) ;
#156 = CALENDAR_DATE ( 2021, 10, 11 ) ;
#157 = PERSON_AND_ORGANIZATION ( #29, #189 ) ;
#158 = ADVANCED_FACE ( 'NONE', ( #233 ), #19, .F. ) ;
#159 = VERTEX_POINT ( 'NONE', #137 ) ;
#160 = AXIS2_PLACEMENT_3D ( 'NONE', #42, #133, #65 ) ;
#161 = DIRECTION ( 'NONE',  ( -3.491481338843133355E-15, 1.224646799147353207E-16, -1.000000000000000000 ) ) ;
#162 = APPROVAL_PERSON_ORGANIZATION ( #194, #198, #43 ) ;
#163 = PERSON_AND_ORGANIZATION ( #29, #189 ) ;
#164 = COORDINATED_UNIVERSAL_TIME_OFFSET ( 1, 0, .AHEAD. ) ;
#165 = AXIS2_PLACEMENT_3D ( 'NONE', #130, #185, #114 ) ;
#166 = ADVANCED_FACE ( 'NONE', ( #16, #172 ), #207, .T. ) ;
#167 = LOCAL_TIME ( 8, 14, 29.00000000000000000, #164 ) ;
#168 = PLANE ( 'NONE',  #183 ) ;
#169 = CARTESIAN_POINT ( 'NONE',  ( 4.888073874380384331E-15, 0.0000000000000000000, 1.399999999999999245 ) ) ;
#170 = APPROVAL ( #222, 'UNSPECIFIED' ) ;
#171 = EDGE_LOOP ( 'NONE', ( #25 ) ) ;
#172 = FACE_OUTER_BOUND ( 'NONE', #76, .T. ) ;
#173 = CIRCLE ( 'NONE', #165, 1.199999999999998845 ) ;
#174 = SECURITY_CLASSIFICATION ( '', '', #88 ) ;
#175 = FACE_BOUND ( 'NONE', #151, .T. ) ;
#176 = FACE_OUTER_BOUND ( 'NONE', #186, .T. ) ;
#177 = CALENDAR_DATE ( 2021, 10, 11 ) ;
#178 = CIRCLE ( 'NONE', #120, 0.6999999999999996225 ) ;
#179 = DATE_TIME_ROLE ( 'creation_date' ) ;
#180 = CC_DESIGN_DATE_AND_TIME_ASSIGNMENT ( #98, #179, ( #117 ) ) ;
#181 = CARTESIAN_POINT ( 'NONE',  ( 1.326762908760390423E-13, 1.199999999999994182, 38.00000000000000000 ) ) ;
#182 = AXIS2_PLACEMENT_3D ( 'NONE', #116, #153, #227 ) ;
#183 = AXIS2_PLACEMENT_3D ( 'NONE', #119, #205, #11 ) ;
#184 = DIRECTION ( 'NONE',  ( 3.491481338843133355E-15, -0.0000000000000000000, 1.000000000000000000 ) ) ;
#185 = DIRECTION ( 'NONE',  ( -3.491481338843133355E-15, 1.224646799147353207E-16, -1.000000000000000000 ) ) ;
#186 = EDGE_LOOP ( 'NONE', ( #242 ) ) ;
#187 = DIRECTION ( 'NONE',  ( 1.000000000000000000, 0.0000000000000000000, -3.491481338843133355E-15 ) ) ;
#188 = DIRECTION ( 'NONE',  ( -4.275831445896958607E-31, -1.000000000000000000, -1.224646799147353207E-16 ) ) ;
#189 = ORGANIZATION ( 'UNSPECIFIED', 'UNSPECIFIED', '' ) ;
#190 = DIRECTION ( 'NONE',  ( 1.000000000000000000, 0.0000000000000000000, -3.407492542097301509E-15 ) ) ;
#191 = EDGE_LOOP ( 'NONE', ( #201 ) ) ;
#192 = PERSON_AND_ORGANIZATION_ROLE ( 'design_owner' ) ;
#193 = ADVANCED_FACE ( 'NONE', ( #78 ), #168, .F. ) ;
#194 = PERSON_AND_ORGANIZATION ( #29, #189 ) ;
#195 = PERSON_AND_ORGANIZATION ( #29, #189 ) ;
#196 = DIRECTION ( 'NONE',  ( 0.0000000000000000000, 1.000000000000000000, 0.0000000000000000000 ) ) ;
#197 = COORDINATED_UNIVERSAL_TIME_OFFSET ( 1, 0, .AHEAD. ) ;
#198 = APPROVAL ( #67, 'UNSPECIFIED' ) ;
#199 = DATE_AND_TIME ( #51, #167 ) ;
#200 = ORIENTED_EDGE ( 'NONE', *, *, #59, .T. ) ;
#201 = ORIENTED_EDGE ( 'NONE', *, *, #131, .F. ) ;
#202 = CARTESIAN_POINT ( 'NONE',  ( 0.7000000000000045075, 0.0000000000000000000, 1.399999999999996803 ) ) ;
#203 = CC_DESIGN_SECURITY_CLASSIFICATION ( #174, ( #138 ) ) ;
#204 = DIRECTION ( 'NONE',  ( 1.000000000000000000, 0.0000000000000000000, -3.491481338843133355E-15 ) ) ;
#205 = DIRECTION ( 'NONE',  ( 3.491481338843133355E-15, -1.224646799147353207E-16, 1.000000000000000000 ) ) ;
#206 = ORIENTED_EDGE ( 'NONE', *, *, #212, .T. ) ;
#207 = CYLINDRICAL_SURFACE ( 'NONE', #160, 1.499999999999996447 ) ;
#208 = EDGE_CURVE ( 'NONE', #214, #214, #229, .T. ) ;
#209 = EDGE_LOOP ( 'NONE', ( #56 ) ) ;
#210 = DIRECTION ( 'NONE',  ( 3.491481338843133355E-15, -1.224646799147353207E-16, 1.000000000000000000 ) ) ;
#211 = DIRECTION ( 'NONE',  ( 1.000000000000000000, 0.0000000000000000000, 0.0000000000000000000 ) ) ;
#212 = EDGE_CURVE ( 'NONE', #136, #136, #46, .T. ) ;
#213 = CIRCLE ( 'NONE', #182, 0.7681483474218592233 ) ;
#214 = VERTEX_POINT ( 'NONE', #216 ) ;
#215 = CC_DESIGN_APPROVAL ( #198, ( #138 ) ) ;
#216 = CARTESIAN_POINT ( 'NONE',  ( 0.7000000000000045075, 0.0000000000000000000, 1.399999999999996803 ) ) ;
#217 = FACE_OUTER_BOUND ( 'NONE', #107, .T. ) ;
#218 = DATE_TIME_ROLE ( 'classification_date' ) ;
#219 = AXIS2_PLACEMENT_3D ( 'NONE', #152, #149, #20 ) ;
#220 = LOCAL_TIME ( 8, 14, 29.00000000000000000, #235 ) ;
#221 = EDGE_CURVE ( 'NONE', #124, #124, #213, .T. ) ;
#222 = APPROVAL_STATUS ( 'not_yet_approved' ) ;
#223 = FACE_OUTER_BOUND ( 'NONE', #171, .T. ) ;
#224 = CONICAL_SURFACE ( 'NONE', #4, 1.199999999999998845, 0.7853981633974450594 ) ;
#225 = DESIGN_CONTEXT ( 'detailed design', #226, 'design' ) ;
#226 = APPLICATION_CONTEXT ( 'configuration controlled 3d designs of mechanical parts and assemblies' ) ;
#227 = DIRECTION ( 'NONE',  ( 1.000000000000000000, 0.0000000000000000000, -3.387477461480721144E-15 ) ) ;
#228 = DIRECTION ( 'NONE',  ( 3.491481338843133355E-15, -0.0000000000000000000, 1.000000000000000000 ) ) ;
#229 = CIRCLE ( 'NONE', #54, 0.6999999999999996225 ) ;
#230 = PLANE ( 'NONE',  #142 ) ;
#231 = PRODUCT_RELATED_PRODUCT_CATEGORY ( 'detail', '', ( #150 ) ) ;
#232 = DIRECTION ( 'NONE',  ( 1.000000000000000000, 0.0000000000000000000, -3.469446951953622866E-15 ) ) ;
#233 = FACE_OUTER_BOUND ( 'NONE', #209, .T. ) ;
#234 = AXIS2_PLACEMENT_3D ( 'NONE', #82, #93, #18 ) ;
#235 = COORDINATED_UNIVERSAL_TIME_OFFSET ( 1, 0, .AHEAD. ) ;
#236 = MANIFOLD_SOLID_BREP ( 'Corps-Déplacer/Copier1[2]', #21 ) ;
#237 = PERSON_AND_ORGANIZATION_ROLE ( 'creator' ) ;
#238 = CARTESIAN_POINT ( 'NONE',  ( 1.316288464743861212E-13, 1.499999999999994005, 37.69999999999999574 ) ) ;
#239 = AXIS2_PLACEMENT_3D ( 'NONE', #155, #87, #211 ) ;
#240 = VERTEX_POINT ( 'NONE', #181 ) ;
#241 = PERSON_AND_ORGANIZATION_ROLE ( 'creator' ) ;
#242 = ORIENTED_EDGE ( 'NONE', *, *, #221, .F. ) ;
#243 = TOROIDAL_SURFACE ( 'NONE', #129, 2.699999999999999289, 2.000000000000000000 ) ;
ENDSEC;
END-ISO-10303-21;
