ISO-10303-21;
HEADER;
FILE_DESCRIPTION (( 'STEP AP203' ),
    '1' );
FILE_NAME ('64374.step',
    '2021-11-10T07:14:28',
    ( '' ),
    ( '' ),
    'SwSTEP 2.0',
    'SolidWorks 2019',
    '' );
FILE_SCHEMA (( 'CONFIG_CONTROL_DESIGN' ));
ENDSEC;

DATA;
#1 = AXIS2_PLACEMENT_3D ( 'NONE', #164, #199, #112 ) ;
#2 = COORDINATED_UNIVERSAL_TIME_OFFSET ( 1, 0, .AHEAD. ) ;
#3 = APPROVAL ( #218, 'UNSPECIFIED' ) ;
#4 = PERSON_AND_ORGANIZATION ( #174, #194 ) ;
#5 = APPROVAL_DATE_TIME ( #153, #62 ) ;
#6 = FACE_OUTER_BOUND ( 'NONE', #13, .T. ) ;
#7 =( NAMED_UNIT ( * ) PLANE_ANGLE_UNIT ( ) SI_UNIT ( $, .RADIAN. ) );
#8 = VERTEX_POINT ( 'NONE', #210 ) ;
#9 = ORIENTED_EDGE ( 'NONE', *, *, #108, .F. ) ;
#10 = ADVANCED_FACE ( 'NONE', ( #87 ), #203, .F. ) ;
#11 = EDGE_LOOP ( 'NONE', ( #160 ) ) ;
#12 = CIRCLE ( 'NONE', #77, 0.7431483474218603114 ) ;
#13 = EDGE_LOOP ( 'NONE', ( #168 ) ) ;
#14 = DIRECTION ( 'NONE',  ( 3.491481338843133355E-15, -0.0000000000000000000, 1.000000000000000000 ) ) ;
#15 = EDGE_LOOP ( 'NONE', ( #94 ) ) ;
#16 = EDGE_CURVE ( 'NONE', #102, #102, #183, .T. ) ;
#17 = DIRECTION ( 'NONE',  ( 1.000000000000000000, 0.0000000000000000000, -3.469446951953622866E-15 ) ) ;
#18 = EDGE_LOOP ( 'NONE', ( #9 ) ) ;
#19 = CC_DESIGN_PERSON_AND_ORGANIZATION_ASSIGNMENT ( #132, #209, ( #23 ) ) ;
#20 = FACE_OUTER_BOUND ( 'NONE', #70, .T. ) ;
#21 = PERSON_AND_ORGANIZATION ( #174, #194 ) ;
#22 = APPROVAL_PERSON_ORGANIZATION ( #158, #3, #61 ) ;
#23 = PRODUCT_DEFINITION_FORMATION_WITH_SPECIFIED_SOURCE ( 'ANY', '', #57, .NOT_KNOWN. ) ;
#24 = AXIS2_PLACEMENT_3D ( 'NONE', #141, #92, #162 ) ;
#25 = CC_DESIGN_SECURITY_CLASSIFICATION ( #99, ( #23 ) ) ;
#26 = DATE_TIME_ROLE ( 'creation_date' ) ;
#27 = MECHANICAL_CONTEXT ( 'NONE', #72, 'mechanical' ) ;
#28 = ADVANCED_FACE ( 'NONE', ( #129 ), #69, .F. ) ;
#29 = CLOSED_SHELL ( 'NONE', ( #147, #75, #136 ) ) ;
#30 = CARTESIAN_POINT ( 'NONE',  ( 0.0000000000000000000, 0.0000000000000000000, 0.0000000000000000000 ) ) ;
#31 = DIRECTION ( 'NONE',  ( -3.491481338843133355E-15, 1.224646799147353207E-16, -1.000000000000000000 ) ) ;
#32 = CARTESIAN_POINT ( 'NONE',  ( 4.713499807438228452E-15, 0.0000000000000000000, 1.349999999999999423 ) ) ;
#33 = DIRECTION ( 'NONE',  ( -4.275831445896958607E-31, -1.000000000000000000, -1.224646799147353207E-16 ) ) ;
#34 = ADVANCED_BREP_SHAPE_REPRESENTATION ( '64374', ( #232, #235, #205 ), #189 ) ;
#35 = DIRECTION ( 'NONE',  ( 4.275831445896958607E-31, 1.000000000000000000, 1.224646799147353207E-16 ) ) ;
#36 = AXIS2_PLACEMENT_3D ( 'NONE', #180, #40, #146 ) ;
#37 = EDGE_LOOP ( 'NONE', ( #107 ) ) ;
#38 = DIRECTION ( 'NONE',  ( -3.491481338843133355E-15, 1.224646799147353207E-16, -1.000000000000000000 ) ) ;
#39 = CIRCLE ( 'NONE', #207, 1.199999999999998845 ) ;
#40 = DIRECTION ( 'NONE',  ( -3.491481338843133355E-15, 1.224646799147353207E-16, -1.000000000000000000 ) ) ;
#41 = FACE_OUTER_BOUND ( 'NONE', #50, .T. ) ;
#42 = DATE_AND_TIME ( #170, #63 ) ;
#43 = CC_DESIGN_PERSON_AND_ORGANIZATION_ASSIGNMENT ( #4, #148, ( #57 ) ) ;
#44 = PERSON_AND_ORGANIZATION ( #174, #194 ) ;
#45 = LOCAL_TIME ( 8, 14, 28.00000000000000000, #140 ) ;
#46 = CALENDAR_DATE ( 2021, 10, 11 ) ;
#47 = COORDINATED_UNIVERSAL_TIME_OFFSET ( 1, 0, .AHEAD. ) ;
#48 = DIRECTION ( 'NONE',  ( 3.491481338843133355E-15, -0.0000000000000000000, 1.000000000000000000 ) ) ;
#49 = CARTESIAN_POINT ( 'NONE',  ( -1.786038389295302186E-30, 0.0000000000000000000, -5.115417256925931626E-16 ) ) ;
#50 = EDGE_LOOP ( 'NONE', ( #96 ) ) ;
#51 = AXIS2_PLACEMENT_3D ( 'NONE', #118, #192, #101 ) ;
#52 = CC_DESIGN_APPROVAL ( #62, ( #23 ) ) ;
#53 = EDGE_LOOP ( 'NONE', ( #143 ) ) ;
#54 = DIRECTION ( 'NONE',  ( 3.491481338843133355E-15, -0.0000000000000000000, 1.000000000000000000 ) ) ;
#55 = APPROVAL_PERSON_ORGANIZATION ( #226, #62, #191 ) ;
#56 = PERSON_AND_ORGANIZATION ( #174, #194 ) ;
#57 = PRODUCT ( '64374', '64374', '', ( #27 ) ) ;
#58 = APPROVAL_DATE_TIME ( #133, #212 ) ;
#59 = COORDINATED_UNIVERSAL_TIME_OFFSET ( 1, 0, .AHEAD. ) ;
#60 = DESIGN_CONTEXT ( 'detailed design', #157, 'design' ) ;
#61 = APPROVAL_ROLE ( '' ) ;
#62 = APPROVAL ( #79, 'UNSPECIFIED' ) ;
#63 = LOCAL_TIME ( 8, 14, 28.00000000000000000, #117 ) ;
#64 = APPROVAL_PERSON_ORGANIZATION ( #21, #212, #119 ) ;
#65 = CALENDAR_DATE ( 2021, 10, 11 ) ;
#66 = CARTESIAN_POINT ( 'NONE',  ( 0.6749999999999998224, 0.0000000000000000000, -2.356749903719114620E-15 ) ) ;
#67 = PERSON_AND_ORGANIZATION_ROLE ( 'classification_officer' ) ;
#68 = CARTESIAN_POINT ( 'NONE',  ( 0.6750000000000044853, 0.0000000000000000000, 1.349999999999996980 ) ) ;
#69 = PLANE ( 'NONE',  #225 ) ;
#70 = EDGE_LOOP ( 'NONE', ( #223 ) ) ;
#71 = EDGE_LOOP ( 'NONE', ( #187 ) ) ;
#72 = APPLICATION_CONTEXT ( 'configuration controlled 3d designs of mechanical parts and assemblies' ) ;
#73 = DIRECTION ( 'NONE',  ( -4.275831445896958607E-31, -1.000000000000000000, -1.224646799147353207E-16 ) ) ;
#74 = DIRECTION ( 'NONE',  ( 3.491481338843133355E-15, -1.224646799147353207E-16, 1.000000000000000000 ) ) ;
#75 = ADVANCED_FACE ( 'NONE', ( #111, #217 ), #236, .T. ) ;
#76 = CC_DESIGN_APPROVAL ( #212, ( #123 ) ) ;
#77 = AXIS2_PLACEMENT_3D ( 'NONE', #166, #54, #124 ) ;
#78 = PERSON_AND_ORGANIZATION_ROLE ( 'creator' ) ;
#79 = APPROVAL_STATUS ( 'not_yet_approved' ) ;
#80 = DATE_AND_TIME ( #65, #45 ) ;
#81 = APPLICATION_PROTOCOL_DEFINITION ( 'international standard', 'config_control_design', 1994, #72 ) ;
#82 = DIRECTION ( 'NONE',  ( 0.0000000000000000000, 1.000000000000000000, 0.0000000000000000000 ) ) ;
#83 =( NAMED_UNIT ( * ) SI_UNIT ( $, .STERADIAN. ) SOLID_ANGLE_UNIT ( ) );
#84 = LOCAL_TIME ( 8, 14, 28.00000000000000000, #47 ) ;
#85 = AXIS2_PLACEMENT_3D ( 'NONE', #240, #74, #73 ) ;
#86 = EDGE_CURVE ( 'NONE', #122, #122, #12, .T. ) ;
#87 = FACE_OUTER_BOUND ( 'NONE', #53, .T. ) ;
#88 = PLANE ( 'NONE',  #24 ) ;
#89 = AXIS2_PLACEMENT_3D ( 'NONE', #221, #106, #186 ) ;
#90 = CARTESIAN_POINT ( 'NONE',  ( 4.713499807438230818E-15, -1.951563910473913651E-16, 1.350000000000000089 ) ) ;
#91 = CIRCLE ( 'NONE', #115, 1.499999999999996225 ) ;
#92 = DIRECTION ( 'NONE',  ( 3.491481338843133355E-15, -1.224646799147353207E-16, 1.000000000000000000 ) ) ;
#93 = FACE_OUTER_BOUND ( 'NONE', #18, .T. ) ;
#94 = ORIENTED_EDGE ( 'NONE', *, *, #130, .T. ) ;
#95 = CYLINDRICAL_SURFACE ( 'NONE', #134, 1.499999999999996447 ) ;
#96 = ORIENTED_EDGE ( 'NONE', *, *, #86, .F. ) ;
#97 = APPROVAL_STATUS ( 'not_yet_approved' ) ;
#98 = FACE_BOUND ( 'NONE', #206, .T. ) ;
#99 = SECURITY_CLASSIFICATION ( '', '', #161 ) ;
#100 = EDGE_CURVE ( 'NONE', #137, #137, #110, .T. ) ;
#101 = DIRECTION ( 'NONE',  ( 1.000000000000000000, 0.0000000000000000000, -3.491481338843133355E-15 ) ) ;
#102 = VERTEX_POINT ( 'NONE', #68 ) ;
#103 = VERTEX_POINT ( 'NONE', #177 ) ;
#104 = DIRECTION ( 'NONE',  ( 0.0000000000000000000, 1.000000000000000000, 0.0000000000000000000 ) ) ;
#105 = PERSON_AND_ORGANIZATION ( #174, #194 ) ;
#106 = DIRECTION ( 'NONE',  ( 3.491481338843133355E-15, -0.0000000000000000000, 1.000000000000000000 ) ) ;
#107 = ORIENTED_EDGE ( 'NONE', *, *, #154, .F. ) ;
#108 = EDGE_CURVE ( 'NONE', #231, #231, #135, .T. ) ;
#109 = EDGE_LOOP ( 'NONE', ( #126 ) ) ;
#110 = CIRCLE ( 'NONE', #1, 0.6749999999999998224 ) ;
#111 = FACE_OUTER_BOUND ( 'NONE', #114, .T. ) ;
#112 = DIRECTION ( 'NONE',  ( 1.000000000000000000, 0.0000000000000000000, -3.533695969582385859E-15 ) ) ;
#113 = FACE_OUTER_BOUND ( 'NONE', #15, .T. ) ;
#114 = EDGE_LOOP ( 'NONE', ( #131 ) ) ;
#115 = AXIS2_PLACEMENT_3D ( 'NONE', #185, #14, #182 ) ;
#116 = CC_DESIGN_PERSON_AND_ORGANIZATION_ASSIGNMENT ( #56, #228, ( #23 ) ) ;
#117 = COORDINATED_UNIVERSAL_TIME_OFFSET ( 1, 0, .AHEAD. ) ;
#118 = CARTESIAN_POINT ( 'NONE',  ( 4.713499807438229241E-15, 0.0000000000000000000, 1.349999999999999645 ) ) ;
#119 = APPROVAL_ROLE ( '' ) ;
#120 = VERTEX_POINT ( 'NONE', #193 ) ;
#121 = AXIS2_PLACEMENT_3D ( 'NONE', #49, #48, #204 ) ;
#122 = VERTEX_POINT ( 'NONE', #196 ) ;
#123 = PRODUCT_DEFINITION ( 'UNKNOWN', '', #23, #60 ) ;
#124 = DIRECTION ( 'NONE',  ( 1.000000000000000000, 0.0000000000000000000, -3.501434434985151835E-15 ) ) ;
#125 = DIRECTION ( 'NONE',  ( 1.000000000000000000, 0.0000000000000000000, 0.0000000000000000000 ) ) ;
#126 = ORIENTED_EDGE ( 'NONE', *, *, #16, .T. ) ;
#127 = CARTESIAN_POINT ( 'NONE',  ( 1.326762908760390423E-13, 8.998558695971069014E-33, 38.00000000000000000 ) ) ;
#128 = LOCAL_TIME ( 8, 14, 28.00000000000000000, #59 ) ;
#129 = FACE_OUTER_BOUND ( 'NONE', #37, .T. ) ;
#130 = EDGE_CURVE ( 'NONE', #103, #103, #91, .T. ) ;
#131 = ORIENTED_EDGE ( 'NONE', *, *, #108, .T. ) ;
#132 = PERSON_AND_ORGANIZATION ( #174, #194 ) ;
#133 = DATE_AND_TIME ( #211, #128 ) ;
#134 = AXIS2_PLACEMENT_3D ( 'NONE', #163, #215, #214 ) ;
#135 = CIRCLE ( 'NONE', #89, 0.6749999999999998224 ) ;
#136 = ADVANCED_FACE ( 'NONE', ( #93 ), #88, .F. ) ;
#137 = VERTEX_POINT ( 'NONE', #159 ) ;
#138 = CONICAL_SURFACE ( 'NONE', #201, 1.199999999999998845, 0.7853981633974450594 ) ;
#139 = ORIENTED_EDGE ( 'NONE', *, *, #130, .F. ) ;
#140 = COORDINATED_UNIVERSAL_TIME_OFFSET ( 1, 0, .AHEAD. ) ;
#141 = CARTESIAN_POINT ( 'NONE',  ( -6.413803915257457113E-31, 2.249659577954772199E-32, -1.836986451539393076E-16 ) ) ;
#142 = DIRECTION ( 'NONE',  ( 1.000000000000000000, 0.0000000000000000000, -3.533695969582385859E-15 ) ) ;
#143 = ORIENTED_EDGE ( 'NONE', *, *, #100, .F. ) ;
#144 = CARTESIAN_POINT ( 'NONE',  ( 1.326762908760390423E-13, -4.653657836759941941E-15, 38.00000000000000000 ) ) ;
#145 = CARTESIAN_POINT ( 'NONE',  ( 1.638289252846437831E-14, 0.0000000000000000000, 4.692246911419174715 ) ) ;
#146 = DIRECTION ( 'NONE',  ( 0.0000000000000000000, 1.000000000000000000, 0.0000000000000000000 ) ) ;
#147 = ADVANCED_FACE ( 'NONE', ( #197 ), #165, .T. ) ;
#148 = PERSON_AND_ORGANIZATION_ROLE ( 'design_owner' ) ;
#149 = AXIS2_PLACEMENT_3D ( 'NONE', #32, #241, #142 ) ;
#150 = CARTESIAN_POINT ( 'NONE',  ( 1.326762908760390423E-13, -4.653657836759941941E-15, 38.00000000000000000 ) ) ;
#151 = PRODUCT_DEFINITION_SHAPE ( 'NONE', 'NONE',  #123 ) ;
#152 = DIRECTION ( 'NONE',  ( 3.491481338843133355E-15, -0.0000000000000000000, 1.000000000000000000 ) ) ;
#153 = DATE_AND_TIME ( #208, #155 ) ;
#154 = EDGE_CURVE ( 'NONE', #8, #8, #39, .T. ) ;
#155 = LOCAL_TIME ( 8, 14, 28.00000000000000000, #2 ) ;
#156 = UNCERTAINTY_MEASURE_WITH_UNIT (LENGTH_MEASURE( 1.000000000000000082E-05 ), #238, 'distance_accuracy_value', 'NONE');
#157 = APPLICATION_CONTEXT ( 'configuration controlled 3d designs of mechanical parts and assemblies' ) ;
#158 = PERSON_AND_ORGANIZATION ( #174, #194 ) ;
#159 = CARTESIAN_POINT ( 'NONE',  ( 0.6750000000000044853, 0.0000000000000000000, 1.349999999999996980 ) ) ;
#160 = ORIENTED_EDGE ( 'NONE', *, *, #16, .F. ) ;
#161 = SECURITY_CLASSIFICATION_LEVEL ( 'unclassified' ) ;
#162 = DIRECTION ( 'NONE',  ( -4.275831445896958607E-31, -1.000000000000000000, -1.224646799147353207E-16 ) ) ;
#163 = CARTESIAN_POINT ( 'NONE',  ( 0.0000000000000000000, 0.0000000000000000000, 0.0000000000000000000 ) ) ;
#164 = CARTESIAN_POINT ( 'NONE',  ( 4.713499807438228452E-15, 0.0000000000000000000, 1.349999999999999423 ) ) ;
#165 = PLANE ( 'NONE',  #85 ) ;
#166 = CARTESIAN_POINT ( 'NONE',  ( 6.520823539663484833E-15, 0.0000000000000000000, 1.867638090205028467 ) ) ;
#167 = CLOSED_SHELL ( 'NONE', ( #237, #179, #28, #216, #202, #10 ) ) ;
#168 = ORIENTED_EDGE ( 'NONE', *, *, #171, .T. ) ;
#169 = CC_DESIGN_PERSON_AND_ORGANIZATION_ASSIGNMENT ( #44, #78, ( #123 ) ) ;
#170 = CALENDAR_DATE ( 2021, 10, 11 ) ;
#171 = EDGE_CURVE ( 'NONE', #120, #120, #190, .T. ) ;
#172 = TOROIDAL_SURFACE ( 'NONE', #51, 2.675000000000000266, 2.000000000000000000 ) ;
#173 = FACE_BOUND ( 'NONE', #71, .T. ) ;
#174 = PERSON ( 'UNSPECIFIED', 'UNSPECIFIED', 'UNSPECIFIED', ('UNSPECIFIED'), ('UNSPECIFIED'), ('UNSPECIFIED') ) ;
#175 = PRODUCT_RELATED_PRODUCT_CATEGORY ( 'detail', '', ( #57 ) ) ;
#176 = DATE_TIME_ROLE ( 'classification_date' ) ;
#177 = CARTESIAN_POINT ( 'NONE',  ( 1.500000000000012657, 0.0000000000000000000, 4.692246911419170274 ) ) ;
#178 = CONICAL_SURFACE ( 'NONE', #230, 1.499999999999996225, 0.2617993877991427465 ) ;
#179 = ADVANCED_FACE ( 'NONE', ( #243, #173 ), #138, .T. ) ;
#180 = CARTESIAN_POINT ( 'NONE',  ( 1.316288464743861212E-13, -4.616918432785521081E-15, 37.69999999999999574 ) ) ;
#181 = SHAPE_DEFINITION_REPRESENTATION ( #151, #34 ) ;
#182 = DIRECTION ( 'NONE',  ( 1.000000000000000000, 0.0000000000000000000, -3.469446951953622866E-15 ) ) ;
#183 = CIRCLE ( 'NONE', #149, 0.6749999999999998224 ) ;
#184 = DIRECTION ( 'NONE',  ( -3.491481338843133355E-15, 1.224646799147353207E-16, -1.000000000000000000 ) ) ;
#185 = CARTESIAN_POINT ( 'NONE',  ( 1.638289252846437831E-14, 0.0000000000000000000, 4.692246911419174715 ) ) ;
#186 = DIRECTION ( 'NONE',  ( 1.000000000000000000, 0.0000000000000000000, -3.491481338843133750E-15 ) ) ;
#187 = ORIENTED_EDGE ( 'NONE', *, *, #154, .T. ) ;
#188 = FACE_OUTER_BOUND ( 'NONE', #234, .T. ) ;
#189 =( GEOMETRIC_REPRESENTATION_CONTEXT ( 3 ) GLOBAL_UNCERTAINTY_ASSIGNED_CONTEXT ( ( #156 ) ) GLOBAL_UNIT_ASSIGNED_CONTEXT ( ( #238, #7, #83 ) ) REPRESENTATION_CONTEXT ( 'NONE', 'WORKASPACE' ) );
#190 = CIRCLE ( 'NONE', #36, 1.499999999999998446 ) ;
#191 = APPROVAL_ROLE ( '' ) ;
#192 = DIRECTION ( 'NONE',  ( 3.491481338843133355E-15, -0.0000000000000000000, 1.000000000000000000 ) ) ;
#193 = CARTESIAN_POINT ( 'NONE',  ( 1.316288464743861212E-13, 1.499999999999994005, 37.69999999999999574 ) ) ;
#194 = ORGANIZATION ( 'UNSPECIFIED', 'UNSPECIFIED', '' ) ;
#195 = DIRECTION ( 'NONE',  ( 0.0000000000000000000, 0.0000000000000000000, 1.000000000000000000 ) ) ;
#196 = CARTESIAN_POINT ( 'NONE',  ( 0.7431483474218667507, 0.0000000000000000000, 1.867638090205025803 ) ) ;
#197 = FACE_OUTER_BOUND ( 'NONE', #109, .T. ) ;
#198 = DATE_AND_TIME ( #46, #84 ) ;
#199 = DIRECTION ( 'NONE',  ( 3.491481338843133355E-15, -0.0000000000000000000, 1.000000000000000000 ) ) ;
#200 = EDGE_LOOP ( 'NONE', ( #219 ) ) ;
#201 = AXIS2_PLACEMENT_3D ( 'NONE', #150, #38, #82 ) ;
#202 = ADVANCED_FACE ( 'NONE', ( #98, #188 ), #178, .T. ) ;
#203 = PLANE ( 'NONE',  #213 ) ;
#204 = DIRECTION ( 'NONE',  ( 1.000000000000000000, 0.0000000000000000000, -3.491481338843133750E-15 ) ) ;
#205 = AXIS2_PLACEMENT_3D ( 'NONE', #30, #195, #125 ) ;
#206 = EDGE_LOOP ( 'NONE', ( #239 ) ) ;
#207 = AXIS2_PLACEMENT_3D ( 'NONE', #144, #31, #104 ) ;
#208 = CALENDAR_DATE ( 2021, 10, 11 ) ;
#209 = PERSON_AND_ORGANIZATION_ROLE ( 'design_supplier' ) ;
#210 = CARTESIAN_POINT ( 'NONE',  ( 1.326762908760390423E-13, 1.199999999999994182, 38.00000000000000000 ) ) ;
#211 = CALENDAR_DATE ( 2021, 10, 11 ) ;
#212 = APPROVAL ( #97, 'UNSPECIFIED' ) ;
#213 = AXIS2_PLACEMENT_3D ( 'NONE', #90, #224, #33 ) ;
#214 = DIRECTION ( 'NONE',  ( 4.275831445896958607E-31, 1.000000000000000000, 1.224646799147352961E-16 ) ) ;
#215 = DIRECTION ( 'NONE',  ( -3.491481338843133355E-15, 1.224646799147353207E-16, -1.000000000000000000 ) ) ;
#216 = ADVANCED_FACE ( 'NONE', ( #20, #41 ), #172, .F. ) ;
#217 = FACE_OUTER_BOUND ( 'NONE', #11, .T. ) ;
#218 = APPROVAL_STATUS ( 'not_yet_approved' ) ;
#219 = ORIENTED_EDGE ( 'NONE', *, *, #171, .F. ) ;
#220 = CC_DESIGN_PERSON_AND_ORGANIZATION_ASSIGNMENT ( #105, #67, ( #99 ) ) ;
#221 = CARTESIAN_POINT ( 'NONE',  ( 0.0000000000000000000, 0.0000000000000000000, 0.0000000000000000000 ) ) ;
#222 = CC_DESIGN_APPROVAL ( #3, ( #99 ) ) ;
#223 = ORIENTED_EDGE ( 'NONE', *, *, #100, .T. ) ;
#224 = DIRECTION ( 'NONE',  ( 3.491481338843133355E-15, -1.224646799147353207E-16, 1.000000000000000000 ) ) ;
#225 = AXIS2_PLACEMENT_3D ( 'NONE', #127, #184, #35 ) ;
#226 = PERSON_AND_ORGANIZATION ( #174, #194 ) ;
#227 = CC_DESIGN_DATE_AND_TIME_ASSIGNMENT ( #42, #26, ( #123 ) ) ;
#228 = PERSON_AND_ORGANIZATION_ROLE ( 'creator' ) ;
#229 = APPLICATION_PROTOCOL_DEFINITION ( 'international standard', 'config_control_design', 1994, #157 ) ;
#230 = AXIS2_PLACEMENT_3D ( 'NONE', #145, #152, #17 ) ;
#231 = VERTEX_POINT ( 'NONE', #66 ) ;
#232 = MANIFOLD_SOLID_BREP ( 'Corps-Déplacer/Copier1[1]', #167 ) ;
#233 = APPROVAL_DATE_TIME ( #198, #3 ) ;
#234 = EDGE_LOOP ( 'NONE', ( #139 ) ) ;
#235 = MANIFOLD_SOLID_BREP ( 'Corps-Déplacer/Copier1[2]', #29 ) ;
#236 = CYLINDRICAL_SURFACE ( 'NONE', #121, 0.6749999999999998224 ) ;
#237 = ADVANCED_FACE ( 'NONE', ( #6, #113 ), #95, .T. ) ;
#238 =( LENGTH_UNIT ( ) NAMED_UNIT ( * ) SI_UNIT ( .MILLI., .METRE. ) );
#239 = ORIENTED_EDGE ( 'NONE', *, *, #86, .T. ) ;
#240 = CARTESIAN_POINT ( 'NONE',  ( 4.713499807438230818E-15, -1.951563910473913651E-16, 1.350000000000000089 ) ) ;
#241 = DIRECTION ( 'NONE',  ( 3.491481338843133355E-15, -0.0000000000000000000, 1.000000000000000000 ) ) ;
#242 = CC_DESIGN_DATE_AND_TIME_ASSIGNMENT ( #80, #176, ( #99 ) ) ;
#243 = FACE_OUTER_BOUND ( 'NONE', #200, .T. ) ;
ENDSEC;
END-ISO-10303-21;
