ISO-10303-21;
HEADER;
FILE_DESCRIPTION (( 'STEP AP203' ),
    '1' );
FILE_NAME ('64373.step',
    '2021-11-10T07:14:28',
    ( '' ),
    ( '' ),
    'SwSTEP 2.0',
    'SolidWorks 2019',
    '' );
FILE_SCHEMA (( 'CONFIG_CONTROL_DESIGN' ));
ENDSEC;

DATA;
#1 = PRODUCT_DEFINITION_FORMATION_WITH_SPECIFIED_SOURCE ( 'ANY', '', #128, .NOT_KNOWN. ) ;
#2 = CARTESIAN_POINT ( 'NONE',  ( 0.0000000000000000000, 0.0000000000000000000, 0.0000000000000000000 ) ) ;
#3 = EDGE_CURVE ( 'NONE', #101, #101, #30, .T. ) ;
#4 = DATE_AND_TIME ( #231, #141 ) ;
#5 = DIRECTION ( 'NONE',  ( 3.491481338843133355E-15, -0.0000000000000000000, 1.000000000000000000 ) ) ;
#6 = DATE_AND_TIME ( #29, #157 ) ;
#7 = CIRCLE ( 'NONE', #185, 1.199999999999998845 ) ;
#8 = VERTEX_POINT ( 'NONE', #65 ) ;
#9 = MANIFOLD_SOLID_BREP ( 'Corps-Déplacer/Copier1[1]', #216 ) ;
#10 = CC_DESIGN_DATE_AND_TIME_ASSIGNMENT ( #6, #142, ( #170 ) ) ;
#11 = EDGE_LOOP ( 'NONE', ( #72 ) ) ;
#12 = DIRECTION ( 'NONE',  ( 3.491481338843133355E-15, -0.0000000000000000000, 1.000000000000000000 ) ) ;
#13 = AXIS2_PLACEMENT_3D ( 'NONE', #45, #96, #23 ) ;
#14 = EDGE_CURVE ( 'NONE', #103, #103, #7, .T. ) ;
#15 = PLANE ( 'NONE',  #123 ) ;
#16 = EDGE_LOOP ( 'NONE', ( #22 ) ) ;
#17 = CC_DESIGN_PERSON_AND_ORGANIZATION_ASSIGNMENT ( #81, #127, ( #1 ) ) ;
#18 = CARTESIAN_POINT ( 'NONE',  ( 0.0000000000000000000, 0.0000000000000000000, 0.0000000000000000000 ) ) ;
#19 = AXIS2_PLACEMENT_3D ( 'NONE', #177, #5, #92 ) ;
#20 = ADVANCED_FACE ( 'NONE', ( #236 ), #205, .T. ) ;
#21 = FACE_OUTER_BOUND ( 'NONE', #52, .T. ) ;
#22 = ORIENTED_EDGE ( 'NONE', *, *, #126, .T. ) ;
#23 = DIRECTION ( 'NONE',  ( 4.275831445896958607E-31, 1.000000000000000000, 1.224646799147353207E-16 ) ) ;
#24 = AXIS2_PLACEMENT_3D ( 'NONE', #238, #223, #111 ) ;
#25 = MECHANICAL_CONTEXT ( 'NONE', #62, 'mechanical' ) ;
#26 = COORDINATED_UNIVERSAL_TIME_OFFSET ( 1, 0, .AHEAD. ) ;
#27 = CONICAL_SURFACE ( 'NONE', #163, 1.199999999999998845, 0.7853981633974450594 ) ;
#28 = PERSON_AND_ORGANIZATION ( #242, #152 ) ;
#29 = CALENDAR_DATE ( 2021, 10, 11 ) ;
#30 = CIRCLE ( 'NONE', #207, 1.499999999999996225 ) ;
#31 = DIRECTION ( 'NONE',  ( 0.0000000000000000000, 1.000000000000000000, 0.0000000000000000000 ) ) ;
#32 = ADVANCED_FACE ( 'NONE', ( #36, #129 ), #27, .T. ) ;
#33 = EDGE_LOOP ( 'NONE', ( #241 ) ) ;
#34 = CYLINDRICAL_SURFACE ( 'NONE', #55, 1.499999999999996447 ) ;
#35 = APPROVAL_PERSON_ORGANIZATION ( #230, #137, #48 ) ;
#36 = FACE_OUTER_BOUND ( 'NONE', #190, .T. ) ;
#37 = DIRECTION ( 'NONE',  ( -3.491481338843133355E-15, 1.224646799147353207E-16, -1.000000000000000000 ) ) ;
#38 = APPROVAL ( #200, 'UNSPECIFIED' ) ;
#39 = CC_DESIGN_APPROVAL ( #173, ( #175 ) ) ;
#40 = EDGE_LOOP ( 'NONE', ( #184 ) ) ;
#41 = DESIGN_CONTEXT ( 'detailed design', #94, 'design' ) ;
#42 = FACE_BOUND ( 'NONE', #107, .T. ) ;
#43 = DIRECTION ( 'NONE',  ( 3.491481338843133355E-15, -0.0000000000000000000, 1.000000000000000000 ) ) ;
#44 = AXIS2_PLACEMENT_3D ( 'NONE', #69, #85, #105 ) ;
#45 = CARTESIAN_POINT ( 'NONE',  ( 1.326762908760390423E-13, 8.998558695971069014E-33, 38.00000000000000000 ) ) ;
#46 = DIRECTION ( 'NONE',  ( 0.0000000000000000000, 0.0000000000000000000, 1.000000000000000000 ) ) ;
#47 = PERSON_AND_ORGANIZATION_ROLE ( 'design_owner' ) ;
#48 = APPROVAL_ROLE ( '' ) ;
#49 =( LENGTH_UNIT ( ) NAMED_UNIT ( * ) SI_UNIT ( .MILLI., .METRE. ) );
#50 = CARTESIAN_POINT ( 'NONE',  ( 0.6500000000000000222, 0.0000000000000000000, -2.269462870248036681E-15 ) ) ;
#51 = AXIS2_PLACEMENT_3D ( 'NONE', #18, #91, #154 ) ;
#52 = EDGE_LOOP ( 'NONE', ( #167 ) ) ;
#53 = CARTESIAN_POINT ( 'NONE',  ( 1.653407810527825984E-14, 0.0000000000000000000, 4.735548181608399076 ) ) ;
#54 = CARTESIAN_POINT ( 'NONE',  ( 0.0000000000000000000, 0.0000000000000000000, 0.0000000000000000000 ) ) ;
#55 = AXIS2_PLACEMENT_3D ( 'NONE', #54, #108, #186 ) ;
#56 = DIRECTION ( 'NONE',  ( 1.000000000000000000, 0.0000000000000000000, -3.469446951953622866E-15 ) ) ;
#57 = EDGE_LOOP ( 'NONE', ( #143 ) ) ;
#58 = EDGE_CURVE ( 'NONE', #8, #8, #204, .T. ) ;
#59 = AXIS2_PLACEMENT_3D ( 'NONE', #202, #12, #188 ) ;
#60 = APPLICATION_PROTOCOL_DEFINITION ( 'international standard', 'config_control_design', 1994, #94 ) ;
#61 = CARTESIAN_POINT ( 'NONE',  ( 0.6500000000000041300, 0.0000000000000000000, 1.299999999999997158 ) ) ;
#62 = APPLICATION_CONTEXT ( 'configuration controlled 3d designs of mechanical parts and assemblies' ) ;
#63 = CARTESIAN_POINT ( 'NONE',  ( 1.316288464743861212E-13, 1.499999999999994005, 37.69999999999999574 ) ) ;
#64 = COORDINATED_UNIVERSAL_TIME_OFFSET ( 1, 0, .AHEAD. ) ;
#65 = CARTESIAN_POINT ( 'NONE',  ( 0.6500000000000041300, 0.0000000000000000000, 1.299999999999997158 ) ) ;
#66 = PERSON_AND_ORGANIZATION ( #242, #152 ) ;
#67 = DIRECTION ( 'NONE',  ( -3.491481338843133355E-15, 1.224646799147353207E-16, -1.000000000000000000 ) ) ;
#68 = EDGE_CURVE ( 'NONE', #179, #179, #222, .T. ) ;
#69 = CARTESIAN_POINT ( 'NONE',  ( 4.538925740496073362E-15, -1.879283765641546114E-16, 1.300000000000000044 ) ) ;
#70 = DIRECTION ( 'NONE',  ( -4.275831445896958607E-31, -1.000000000000000000, -1.224646799147353207E-16 ) ) ;
#71 = EDGE_LOOP ( 'NONE', ( #240 ) ) ;
#72 = ORIENTED_EDGE ( 'NONE', *, *, #58, .T. ) ;
#73 = AXIS2_PLACEMENT_3D ( 'NONE', #153, #79, #149 ) ;
#74 = EDGE_LOOP ( 'NONE', ( #114 ) ) ;
#75 = ORIENTED_EDGE ( 'NONE', *, *, #14, .F. ) ;
#76 = AXIS2_PLACEMENT_3D ( 'NONE', #162, #183, #131 ) ;
#77 = CIRCLE ( 'NONE', #212, 1.499999999999998446 ) ;
#78 = VERTEX_POINT ( 'NONE', #61 ) ;
#79 = DIRECTION ( 'NONE',  ( 3.491481338843133355E-15, -0.0000000000000000000, 1.000000000000000000 ) ) ;
#80 = EDGE_CURVE ( 'NONE', #106, #106, #77, .T. ) ;
#81 = PERSON_AND_ORGANIZATION ( #242, #152 ) ;
#82 = CC_DESIGN_PERSON_AND_ORGANIZATION_ASSIGNMENT ( #98, #47, ( #128 ) ) ;
#83 = DATE_AND_TIME ( #155, #168 ) ;
#84 = APPROVAL_DATE_TIME ( #232, #38 ) ;
#85 = DIRECTION ( 'NONE',  ( 3.491481338843133355E-15, -1.224646799147353207E-16, 1.000000000000000000 ) ) ;
#86 = DIRECTION ( 'NONE',  ( 0.0000000000000000000, 1.000000000000000000, 0.0000000000000000000 ) ) ;
#87 = CARTESIAN_POINT ( 'NONE',  ( 4.538925740496073362E-15, -1.879283765641546114E-16, 1.300000000000000044 ) ) ;
#88 = MANIFOLD_SOLID_BREP ( 'Corps-Déplacer/Copier1[2]', #225 ) ;
#89 = FACE_OUTER_BOUND ( 'NONE', #33, .T. ) ;
#90 = PRODUCT_DEFINITION_SHAPE ( 'NONE', 'NONE',  #175 ) ;
#91 = DIRECTION ( 'NONE',  ( 3.491481338843133355E-15, -0.0000000000000000000, 1.000000000000000000 ) ) ;
#92 = DIRECTION ( 'NONE',  ( 1.000000000000000000, 0.0000000000000000000, -3.491481338843133355E-15 ) ) ;
#93 = EDGE_LOOP ( 'NONE', ( #224 ) ) ;
#94 = APPLICATION_CONTEXT ( 'configuration controlled 3d designs of mechanical parts and assemblies' ) ;
#95 = APPROVAL_PERSON_ORGANIZATION ( #66, #173, #197 ) ;
#96 = DIRECTION ( 'NONE',  ( -3.491481338843133355E-15, 1.224646799147353207E-16, -1.000000000000000000 ) ) ;
#97 = ADVANCED_BREP_SHAPE_REPRESENTATION ( '64373', ( #9, #88, #228 ), #138 ) ;
#98 = PERSON_AND_ORGANIZATION ( #242, #152 ) ;
#99 = FACE_OUTER_BOUND ( 'NONE', #71, .T. ) ;
#100 = PERSON_AND_ORGANIZATION ( #242, #152 ) ;
#101 = VERTEX_POINT ( 'NONE', #161 ) ;
#102 = CALENDAR_DATE ( 2021, 10, 11 ) ;
#103 = VERTEX_POINT ( 'NONE', #181 ) ;
#104 = SECURITY_CLASSIFICATION_LEVEL ( 'unclassified' ) ;
#105 = DIRECTION ( 'NONE',  ( -4.275831445896958607E-31, -1.000000000000000000, -1.224646799147353207E-16 ) ) ;
#106 = VERTEX_POINT ( 'NONE', #63 ) ;
#107 = EDGE_LOOP ( 'NONE', ( #148 ) ) ;
#108 = DIRECTION ( 'NONE',  ( -3.491481338843133355E-15, 1.224646799147353207E-16, -1.000000000000000000 ) ) ;
#109 = TOROIDAL_SURFACE ( 'NONE', #19, 2.649999999999999467, 2.000000000000000000 ) ;
#110 = ORIENTED_EDGE ( 'NONE', *, *, #80, .T. ) ;
#111 = DIRECTION ( 'NONE',  ( 1.000000000000000000, 0.0000000000000000000, -3.491481338843133355E-15 ) ) ;
#112 = CC_DESIGN_APPROVAL ( #137, ( #1 ) ) ;
#113 = CARTESIAN_POINT ( 'NONE',  ( 4.538925740496070995E-15, 0.0000000000000000000, 1.299999999999999378 ) ) ;
#114 = ORIENTED_EDGE ( 'NONE', *, *, #58, .F. ) ;
#115 = ADVANCED_FACE ( 'NONE', ( #203, #187 ), #34, .T. ) ;
#116 = CC_DESIGN_PERSON_AND_ORGANIZATION_ASSIGNMENT ( #159, #122, ( #170 ) ) ;
#117 = APPROVAL_PERSON_ORGANIZATION ( #100, #38, #182 ) ;
#118 = ADVANCED_FACE ( 'NONE', ( #89 ), #15, .F. ) ;
#119 = DIRECTION ( 'NONE',  ( 1.000000000000000000, 0.0000000000000000000, -3.336006684570784876E-15 ) ) ;
#120 = DIRECTION ( 'NONE',  ( 1.000000000000000000, 0.0000000000000000000, 0.0000000000000000000 ) ) ;
#121 = ADVANCED_FACE ( 'NONE', ( #146, #145 ), #221, .T. ) ;
#122 = PERSON_AND_ORGANIZATION_ROLE ( 'classification_officer' ) ;
#123 = AXIS2_PLACEMENT_3D ( 'NONE', #87, #237, #70 ) ;
#124 = APPROVAL_DATE_TIME ( #180, #137 ) ;
#125 = DIRECTION ( 'NONE',  ( 3.491481338843133355E-15, -1.224646799147353207E-16, 1.000000000000000000 ) ) ;
#126 = EDGE_CURVE ( 'NONE', #233, #233, #192, .T. ) ;
#127 = PERSON_AND_ORGANIZATION_ROLE ( 'creator' ) ;
#128 = PRODUCT ( '64373', '64373', '', ( #25 ) ) ;
#129 = FACE_BOUND ( 'NONE', #132, .T. ) ;
#130 = ADVANCED_FACE ( 'NONE', ( #191 ), #150, .F. ) ;
#131 = DIRECTION ( 'NONE',  ( 1.000000000000000000, 0.0000000000000000000, -3.623325491601635018E-15 ) ) ;
#132 = EDGE_LOOP ( 'NONE', ( #206 ) ) ;
#133 = AXIS2_PLACEMENT_3D ( 'NONE', #113, #43, #119 ) ;
#134 = ADVANCED_FACE ( 'NONE', ( #42, #243 ), #195, .T. ) ;
#135 = UNCERTAINTY_MEASURE_WITH_UNIT (LENGTH_MEASURE( 1.000000000000000082E-05 ), #49, 'distance_accuracy_value', 'NONE');
#136 = APPROVAL_STATUS ( 'not_yet_approved' ) ;
#137 = APPROVAL ( #217, 'UNSPECIFIED' ) ;
#138 =( GEOMETRIC_REPRESENTATION_CONTEXT ( 3 ) GLOBAL_UNCERTAINTY_ASSIGNED_CONTEXT ( ( #135 ) ) GLOBAL_UNIT_ASSIGNED_CONTEXT ( ( #49, #219, #151 ) ) REPRESENTATION_CONTEXT ( 'NONE', 'WORKASPACE' ) );
#139 = APPROVAL_DATE_TIME ( #4, #173 ) ;
#140 = PERSON_AND_ORGANIZATION_ROLE ( 'creator' ) ;
#141 = LOCAL_TIME ( 8, 14, 28.00000000000000000, #214 ) ;
#142 = DATE_TIME_ROLE ( 'classification_date' ) ;
#143 = ORIENTED_EDGE ( 'NONE', *, *, #68, .F. ) ;
#144 = CARTESIAN_POINT ( 'NONE',  ( 1.326762908760390423E-13, -4.653657836759941941E-15, 38.00000000000000000 ) ) ;
#145 = FACE_OUTER_BOUND ( 'NONE', #74, .T. ) ;
#146 = FACE_OUTER_BOUND ( 'NONE', #16, .T. ) ;
#147 = CC_DESIGN_APPROVAL ( #38, ( #170 ) ) ;
#148 = ORIENTED_EDGE ( 'NONE', *, *, #68, .T. ) ;
#149 = DIRECTION ( 'NONE',  ( 1.000000000000000000, 0.0000000000000000000, -3.469446951953622866E-15 ) ) ;
#150 = PLANE ( 'NONE',  #13 ) ;
#151 =( NAMED_UNIT ( * ) SI_UNIT ( $, .STERADIAN. ) SOLID_ANGLE_UNIT ( ) );
#152 = ORGANIZATION ( 'UNSPECIFIED', 'UNSPECIFIED', '' ) ;
#153 = CARTESIAN_POINT ( 'NONE',  ( 1.653407810527825984E-14, 0.0000000000000000000, 4.735548181608399076 ) ) ;
#154 = DIRECTION ( 'NONE',  ( 1.000000000000000000, 0.0000000000000000000, -3.491481338843133355E-15 ) ) ;
#155 = CALENDAR_DATE ( 2021, 10, 11 ) ;
#156 = CALENDAR_DATE ( 2021, 10, 11 ) ;
#157 = LOCAL_TIME ( 8, 14, 28.00000000000000000, #176 ) ;
#158 = SHAPE_DEFINITION_REPRESENTATION ( #90, #97 ) ;
#159 = PERSON_AND_ORGANIZATION ( #242, #152 ) ;
#160 = CARTESIAN_POINT ( 'NONE',  ( 0.7181483474218659513, 0.0000000000000000000, 1.817638090205025536 ) ) ;
#161 = CARTESIAN_POINT ( 'NONE',  ( 1.500000000000012657, 0.0000000000000000000, 4.735548181608393747 ) ) ;
#162 = CARTESIAN_POINT ( 'NONE',  ( 6.346249472721327376E-15, 0.0000000000000000000, 1.817638090205028201 ) ) ;
#163 = AXIS2_PLACEMENT_3D ( 'NONE', #144, #37, #166 ) ;
#164 = EDGE_LOOP ( 'NONE', ( #75 ) ) ;
#165 = EDGE_LOOP ( 'NONE', ( #110 ) ) ;
#166 = DIRECTION ( 'NONE',  ( 0.0000000000000000000, 1.000000000000000000, 0.0000000000000000000 ) ) ;
#167 = ORIENTED_EDGE ( 'NONE', *, *, #172, .T. ) ;
#168 = LOCAL_TIME ( 8, 14, 28.00000000000000000, #211 ) ;
#169 = CC_DESIGN_PERSON_AND_ORGANIZATION_ASSIGNMENT ( #196, #140, ( #175 ) ) ;
#170 = SECURITY_CLASSIFICATION ( '', '', #104 ) ;
#171 = FACE_OUTER_BOUND ( 'NONE', #57, .T. ) ;
#172 = EDGE_CURVE ( 'NONE', #78, #78, #210, .T. ) ;
#173 = APPROVAL ( #136, 'UNSPECIFIED' ) ;
#174 = LOCAL_TIME ( 8, 14, 28.00000000000000000, #64 ) ;
#175 = PRODUCT_DEFINITION ( 'UNKNOWN', '', #1, #41 ) ;
#176 = COORDINATED_UNIVERSAL_TIME_OFFSET ( 1, 0, .AHEAD. ) ;
#177 = CARTESIAN_POINT ( 'NONE',  ( 4.538925740496071784E-15, 0.0000000000000000000, 1.299999999999999600 ) ) ;
#178 = PERSON_AND_ORGANIZATION_ROLE ( 'design_supplier' ) ;
#179 = VERTEX_POINT ( 'NONE', #160 ) ;
#180 = DATE_AND_TIME ( #102, #174 ) ;
#181 = CARTESIAN_POINT ( 'NONE',  ( 1.326762908760390423E-13, 1.199999999999994182, 38.00000000000000000 ) ) ;
#182 = APPROVAL_ROLE ( '' ) ;
#183 = DIRECTION ( 'NONE',  ( 3.491481338843133355E-15, -0.0000000000000000000, 1.000000000000000000 ) ) ;
#184 = ORIENTED_EDGE ( 'NONE', *, *, #3, .T. ) ;
#185 = AXIS2_PLACEMENT_3D ( 'NONE', #201, #67, #31 ) ;
#186 = DIRECTION ( 'NONE',  ( 4.275831445896958607E-31, 1.000000000000000000, 1.224646799147352961E-16 ) ) ;
#187 = FACE_OUTER_BOUND ( 'NONE', #40, .T. ) ;
#188 = DIRECTION ( 'NONE',  ( 1.000000000000000000, 0.0000000000000000000, -3.336006684570784876E-15 ) ) ;
#189 = AXIS2_PLACEMENT_3D ( 'NONE', #198, #125, #213 ) ;
#190 = EDGE_LOOP ( 'NONE', ( #208 ) ) ;
#191 = FACE_OUTER_BOUND ( 'NONE', #164, .T. ) ;
#192 = CIRCLE ( 'NONE', #51, 0.6500000000000000222 ) ;
#193 = APPLICATION_PROTOCOL_DEFINITION ( 'international standard', 'config_control_design', 1994, #62 ) ;
#194 = DATE_TIME_ROLE ( 'creation_date' ) ;
#195 = CONICAL_SURFACE ( 'NONE', #73, 1.499999999999996225, 0.2617993877991429685 ) ;
#196 = PERSON_AND_ORGANIZATION ( #242, #152 ) ;
#197 = APPROVAL_ROLE ( '' ) ;
#198 = CARTESIAN_POINT ( 'NONE',  ( -6.413803915257457113E-31, 2.249659577954772199E-32, -1.836986451539393076E-16 ) ) ;
#199 = CC_DESIGN_SECURITY_CLASSIFICATION ( #170, ( #1 ) ) ;
#200 = APPROVAL_STATUS ( 'not_yet_approved' ) ;
#201 = CARTESIAN_POINT ( 'NONE',  ( 1.326762908760390423E-13, -4.653657836759941941E-15, 38.00000000000000000 ) ) ;
#202 = CARTESIAN_POINT ( 'NONE',  ( 4.538925740496070995E-15, 0.0000000000000000000, 1.299999999999999378 ) ) ;
#203 = FACE_OUTER_BOUND ( 'NONE', #165, .T. ) ;
#204 = CIRCLE ( 'NONE', #59, 0.6499999999999995781 ) ;
#205 = PLANE ( 'NONE',  #44 ) ;
#206 = ORIENTED_EDGE ( 'NONE', *, *, #14, .T. ) ;
#207 = AXIS2_PLACEMENT_3D ( 'NONE', #53, #218, #56 ) ;
#208 = ORIENTED_EDGE ( 'NONE', *, *, #80, .F. ) ;
#209 = CC_DESIGN_DATE_AND_TIME_ASSIGNMENT ( #83, #194, ( #175 ) ) ;
#210 = CIRCLE ( 'NONE', #133, 0.6499999999999995781 ) ;
#211 = COORDINATED_UNIVERSAL_TIME_OFFSET ( 1, 0, .AHEAD. ) ;
#212 = AXIS2_PLACEMENT_3D ( 'NONE', #220, #234, #86 ) ;
#213 = DIRECTION ( 'NONE',  ( -4.275831445896958607E-31, -1.000000000000000000, -1.224646799147353207E-16 ) ) ;
#214 = COORDINATED_UNIVERSAL_TIME_OFFSET ( 1, 0, .AHEAD. ) ;
#215 = PLANE ( 'NONE',  #189 ) ;
#216 = CLOSED_SHELL ( 'NONE', ( #115, #32, #130, #226, #134, #118 ) ) ;
#217 = APPROVAL_STATUS ( 'not_yet_approved' ) ;
#218 = DIRECTION ( 'NONE',  ( 3.491481338843133355E-15, -0.0000000000000000000, 1.000000000000000000 ) ) ;
#219 =( NAMED_UNIT ( * ) PLANE_ANGLE_UNIT ( ) SI_UNIT ( $, .RADIAN. ) );
#220 = CARTESIAN_POINT ( 'NONE',  ( 1.316288464743861212E-13, -4.616918432785521081E-15, 37.69999999999999574 ) ) ;
#221 = CYLINDRICAL_SURFACE ( 'NONE', #24, 0.6499999999999998002 ) ;
#222 = CIRCLE ( 'NONE', #76, 0.7181483474218595120 ) ;
#223 = DIRECTION ( 'NONE',  ( 3.491481338843133355E-15, -0.0000000000000000000, 1.000000000000000000 ) ) ;
#224 = ORIENTED_EDGE ( 'NONE', *, *, #3, .F. ) ;
#225 = CLOSED_SHELL ( 'NONE', ( #20, #121, #229 ) ) ;
#226 = ADVANCED_FACE ( 'NONE', ( #21, #171 ), #109, .F. ) ;
#227 = PRODUCT_RELATED_PRODUCT_CATEGORY ( 'detail', '', ( #128 ) ) ;
#228 = AXIS2_PLACEMENT_3D ( 'NONE', #2, #46, #120 ) ;
#229 = ADVANCED_FACE ( 'NONE', ( #99 ), #215, .F. ) ;
#230 = PERSON_AND_ORGANIZATION ( #242, #152 ) ;
#231 = CALENDAR_DATE ( 2021, 10, 11 ) ;
#232 = DATE_AND_TIME ( #156, #235 ) ;
#233 = VERTEX_POINT ( 'NONE', #50 ) ;
#234 = DIRECTION ( 'NONE',  ( -3.491481338843133355E-15, 1.224646799147353207E-16, -1.000000000000000000 ) ) ;
#235 = LOCAL_TIME ( 8, 14, 28.00000000000000000, #26 ) ;
#236 = FACE_OUTER_BOUND ( 'NONE', #11, .T. ) ;
#237 = DIRECTION ( 'NONE',  ( 3.491481338843133355E-15, -1.224646799147353207E-16, 1.000000000000000000 ) ) ;
#238 = CARTESIAN_POINT ( 'NONE',  ( -1.786038389295302186E-30, 0.0000000000000000000, -5.115417256925931626E-16 ) ) ;
#239 = CC_DESIGN_PERSON_AND_ORGANIZATION_ASSIGNMENT ( #28, #178, ( #1 ) ) ;
#240 = ORIENTED_EDGE ( 'NONE', *, *, #126, .F. ) ;
#241 = ORIENTED_EDGE ( 'NONE', *, *, #172, .F. ) ;
#242 = PERSON ( 'UNSPECIFIED', 'UNSPECIFIED', 'UNSPECIFIED', ('UNSPECIFIED'), ('UNSPECIFIED'), ('UNSPECIFIED') ) ;
#243 = FACE_OUTER_BOUND ( 'NONE', #93, .T. ) ;
ENDSEC;
END-ISO-10303-21;
