ISO-10303-21;
HEADER;
FILE_DESCRIPTION (( 'STEP AP203' ),
    '1' );
FILE_NAME ('64372.step',
    '2021-11-10T07:14:27',
    ( '' ),
    ( '' ),
    'SwSTEP 2.0',
    'SolidWorks 2019',
    '' );
FILE_SCHEMA (( 'CONFIG_CONTROL_DESIGN' ));
ENDSEC;

DATA;
#1 = DATE_AND_TIME ( #136, #58 ) ;
#2 = ORIENTED_EDGE ( 'NONE', *, *, #125, .T. ) ;
#3 = LOCAL_TIME ( 8, 14, 27.00000000000000000, #32 ) ;
#4 = ORIENTED_EDGE ( 'NONE', *, *, #146, .F. ) ;
#5 = PERSON_AND_ORGANIZATION ( #124, #22 ) ;
#6 = CARTESIAN_POINT ( 'NONE',  ( 0.0000000000000000000, 0.0000000000000000000, 0.0000000000000000000 ) ) ;
#7 = APPLICATION_PROTOCOL_DEFINITION ( 'international standard', 'config_control_design', 1994, #177 ) ;
#8 = COORDINATED_UNIVERSAL_TIME_OFFSET ( 1, 0, .AHEAD. ) ;
#9 = AXIS2_PLACEMENT_3D ( 'NONE', #133, #144, #59 ) ;
#10 = DIRECTION ( 'NONE',  ( -3.491481338843133355E-15, 1.224646799147353207E-16, -1.000000000000000000 ) ) ;
#11 = CC_DESIGN_PERSON_AND_ORGANIZATION_ASSIGNMENT ( #212, #41, ( #13 ) ) ;
#12 = ADVANCED_FACE ( 'NONE', ( #150, #223 ), #53, .T. ) ;
#13 = PRODUCT_DEFINITION_FORMATION_WITH_SPECIFIED_SOURCE ( 'ANY', '', #172, .NOT_KNOWN. ) ;
#14 =( LENGTH_UNIT ( ) NAMED_UNIT ( * ) SI_UNIT ( .MILLI., .METRE. ) );
#15 = DIRECTION ( 'NONE',  ( 3.491481338843133355E-15, -1.224646799147353207E-16, 1.000000000000000000 ) ) ;
#16 = CARTESIAN_POINT ( 'NONE',  ( 0.6250000000000001110, 0.0000000000000000000, -2.182175836776958741E-15 ) ) ;
#17 = CALENDAR_DATE ( 2021, 10, 11 ) ;
#18 = CARTESIAN_POINT ( 'NONE',  ( -6.413803915257457113E-31, 2.249659577954772199E-32, -1.836986451539393076E-16 ) ) ;
#19 = DIRECTION ( 'NONE',  ( 3.491481338843133355E-15, -0.0000000000000000000, 1.000000000000000000 ) ) ;
#20 = CARTESIAN_POINT ( 'NONE',  ( 0.0000000000000000000, 0.0000000000000000000, 0.0000000000000000000 ) ) ;
#21 = ORIENTED_EDGE ( 'NONE', *, *, #241, .F. ) ;
#22 = ORGANIZATION ( 'UNSPECIFIED', 'UNSPECIFIED', '' ) ;
#23 = PERSON_AND_ORGANIZATION ( #124, #22 ) ;
#24 = EDGE_LOOP ( 'NONE', ( #98 ) ) ;
#25 = PERSON_AND_ORGANIZATION_ROLE ( 'creator' ) ;
#26 = CALENDAR_DATE ( 2021, 10, 11 ) ;
#27 = ADVANCED_FACE ( 'NONE', ( #225, #116 ), #152, .T. ) ;
#28 = EDGE_LOOP ( 'NONE', ( #103 ) ) ;
#29 = TOROIDAL_SURFACE ( 'NONE', #104, 2.624999999999999556, 2.000000000000000000 ) ;
#30 = FACE_OUTER_BOUND ( 'NONE', #243, .T. ) ;
#31 = CC_DESIGN_DATE_AND_TIME_ASSIGNMENT ( #198, #49, ( #106 ) ) ;
#32 = COORDINATED_UNIVERSAL_TIME_OFFSET ( 1, 0, .AHEAD. ) ;
#33 = CIRCLE ( 'NONE', #72, 0.6250000000000001110 ) ;
#34 = CC_DESIGN_DATE_AND_TIME_ASSIGNMENT ( #174, #47, ( #127 ) ) ;
#35 = VERTEX_POINT ( 'NONE', #164 ) ;
#36 = DIRECTION ( 'NONE',  ( -3.491481338843133355E-15, 1.224646799147353207E-16, -1.000000000000000000 ) ) ;
#37 = CC_DESIGN_APPROVAL ( #90, ( #13 ) ) ;
#38 = CARTESIAN_POINT ( 'NONE',  ( 1.326762908760390423E-13, -4.653657836759941941E-15, 38.00000000000000000 ) ) ;
#39 = VERTEX_POINT ( 'NONE', #54 ) ;
#40 = AXIS2_PLACEMENT_3D ( 'NONE', #162, #36, #110 ) ;
#41 = PERSON_AND_ORGANIZATION_ROLE ( 'design_supplier' ) ;
#42 = EDGE_LOOP ( 'NONE', ( #102 ) ) ;
#43 = LOCAL_TIME ( 8, 14, 27.00000000000000000, #229 ) ;
#44 = SECURITY_CLASSIFICATION_LEVEL ( 'unclassified' ) ;
#45 = CARTESIAN_POINT ( 'NONE',  ( -1.786038389295302186E-30, 0.0000000000000000000, -5.115417256925931626E-16 ) ) ;
#46 = EDGE_CURVE ( 'NONE', #217, #217, #33, .T. ) ;
#47 = DATE_TIME_ROLE ( 'classification_date' ) ;
#48 = FACE_OUTER_BOUND ( 'NONE', #149, .T. ) ;
#49 = DATE_TIME_ROLE ( 'creation_date' ) ;
#50 = APPROVAL_ROLE ( '' ) ;
#51 = CARTESIAN_POINT ( 'NONE',  ( 0.0000000000000000000, 0.0000000000000000000, 0.0000000000000000000 ) ) ;
#52 = PERSON_AND_ORGANIZATION ( #124, #22 ) ;
#53 = CONICAL_SURFACE ( 'NONE', #233, 1.499999999999996225, 0.2617993877991428020 ) ;
#54 = CARTESIAN_POINT ( 'NONE',  ( 0.6250000000000039968, 0.0000000000000000000, 1.249999999999996891 ) ) ;
#55 = DIRECTION ( 'NONE',  ( 1.000000000000000000, 0.0000000000000000000, -3.441175021681782570E-15 ) ) ;
#56 = APPROVAL_ROLE ( '' ) ;
#57 = DIRECTION ( 'NONE',  ( 3.491481338843133355E-15, -0.0000000000000000000, 1.000000000000000000 ) ) ;
#58 = LOCAL_TIME ( 8, 14, 27.00000000000000000, #112 ) ;
#59 = DIRECTION ( 'NONE',  ( -4.275831445896958607E-31, -1.000000000000000000, -1.224646799147353207E-16 ) ) ;
#60 = VERTEX_POINT ( 'NONE', #161 ) ;
#61 =( GEOMETRIC_REPRESENTATION_CONTEXT ( 3 ) GLOBAL_UNCERTAINTY_ASSIGNED_CONTEXT ( ( #83 ) ) GLOBAL_UNIT_ASSIGNED_CONTEXT ( ( #14, #184, #131 ) ) REPRESENTATION_CONTEXT ( 'NONE', 'WORKASPACE' ) );
#62 = PERSON_AND_ORGANIZATION ( #124, #22 ) ;
#63 = ADVANCED_FACE ( 'NONE', ( #213, #48 ), #122, .T. ) ;
#64 = EDGE_LOOP ( 'NONE', ( #186 ) ) ;
#65 = DIRECTION ( 'NONE',  ( 0.0000000000000000000, 0.0000000000000000000, 1.000000000000000000 ) ) ;
#66 = ORIENTED_EDGE ( 'NONE', *, *, #146, .T. ) ;
#67 = AXIS2_PLACEMENT_3D ( 'NONE', #111, #183, #237 ) ;
#68 = SHAPE_DEFINITION_REPRESENTATION ( #105, #216 ) ;
#69 = DIRECTION ( 'NONE',  ( 4.275831445896958607E-31, 1.000000000000000000, 1.224646799147353207E-16 ) ) ;
#70 = PERSON_AND_ORGANIZATION ( #124, #22 ) ;
#71 = APPROVAL_STATUS ( 'not_yet_approved' ) ;
#72 = AXIS2_PLACEMENT_3D ( 'NONE', #6, #88, #155 ) ;
#73 = ADVANCED_FACE ( 'NONE', ( #175 ), #214, .F. ) ;
#74 = FACE_OUTER_BOUND ( 'NONE', #42, .T. ) ;
#75 = CARTESIAN_POINT ( 'NONE',  ( 1.668526368209214768E-14, 0.0000000000000000000, 4.778849451797625214 ) ) ;
#76 = PLANE ( 'NONE',  #9 ) ;
#77 = CC_DESIGN_SECURITY_CLASSIFICATION ( #127, ( #13 ) ) ;
#78 = DATE_AND_TIME ( #17, #3 ) ;
#79 = CARTESIAN_POINT ( 'NONE',  ( 4.364351673553913539E-15, 0.0000000000000000000, 1.249999999999999112 ) ) ;
#80 = CC_DESIGN_PERSON_AND_ORGANIZATION_ASSIGNMENT ( #23, #121, ( #127 ) ) ;
#81 = APPROVAL_DATE_TIME ( #1, #156 ) ;
#82 = PERSON_AND_ORGANIZATION_ROLE ( 'design_owner' ) ;
#83 = UNCERTAINTY_MEASURE_WITH_UNIT (LENGTH_MEASURE( 1.000000000000000082E-05 ), #14, 'distance_accuracy_value', 'NONE');
#84 = ORIENTED_EDGE ( 'NONE', *, *, #128, .F. ) ;
#85 = DIRECTION ( 'NONE',  ( 1.000000000000000000, 0.0000000000000000000, -3.469446951953622866E-15 ) ) ;
#86 = ADVANCED_FACE ( 'NONE', ( #30 ), #140, .F. ) ;
#87 = EDGE_LOOP ( 'NONE', ( #21 ) ) ;
#88 = DIRECTION ( 'NONE',  ( 3.491481338843133355E-15, -0.0000000000000000000, 1.000000000000000000 ) ) ;
#89 = DIRECTION ( 'NONE',  ( 4.275831445896958607E-31, 1.000000000000000000, 1.224646799147352961E-16 ) ) ;
#90 = APPROVAL ( #123, 'UNSPECIFIED' ) ;
#91 = AXIS2_PLACEMENT_3D ( 'NONE', #45, #120, #189 ) ;
#92 = MANIFOLD_SOLID_BREP ( 'Corps-Déplacer/Copier1[1]', #132 ) ;
#93 = MANIFOLD_SOLID_BREP ( 'Corps-Déplacer/Copier1[2]', #114 ) ;
#94 = LOCAL_TIME ( 8, 14, 27.00000000000000000, #8 ) ;
#95 = DIRECTION ( 'NONE',  ( -4.275831445896958607E-31, -1.000000000000000000, -1.224646799147353207E-16 ) ) ;
#96 = PLANE ( 'NONE',  #180 ) ;
#97 = DIRECTION ( 'NONE',  ( 0.0000000000000000000, 1.000000000000000000, 0.0000000000000000000 ) ) ;
#98 = ORIENTED_EDGE ( 'NONE', *, *, #241, .T. ) ;
#99 = APPROVAL_PERSON_ORGANIZATION ( #70, #185, #50 ) ;
#100 = ADVANCED_FACE ( 'NONE', ( #181 ), #76, .T. ) ;
#101 = APPROVAL_DATE_TIME ( #209, #185 ) ;
#102 = ORIENTED_EDGE ( 'NONE', *, *, #125, .F. ) ;
#103 = ORIENTED_EDGE ( 'NONE', *, *, #46, .T. ) ;
#104 = AXIS2_PLACEMENT_3D ( 'NONE', #148, #19, #160 ) ;
#105 = PRODUCT_DEFINITION_SHAPE ( 'NONE', 'NONE',  #106 ) ;
#106 = PRODUCT_DEFINITION ( 'UNKNOWN', '', #13, #224 ) ;
#107 = AXIS2_PLACEMENT_3D ( 'NONE', #51, #10, #89 ) ;
#108 = PERSON_AND_ORGANIZATION ( #124, #22 ) ;
#109 = VERTEX_POINT ( 'NONE', #179 ) ;
#110 = DIRECTION ( 'NONE',  ( 0.0000000000000000000, 1.000000000000000000, 0.0000000000000000000 ) ) ;
#111 = CARTESIAN_POINT ( 'NONE',  ( 4.364351673553913539E-15, 0.0000000000000000000, 1.249999999999999112 ) ) ;
#112 = COORDINATED_UNIVERSAL_TIME_OFFSET ( 1, 0, .AHEAD. ) ;
#113 = ADVANCED_FACE ( 'NONE', ( #201, #134 ), #29, .F. ) ;
#114 = CLOSED_SHELL ( 'NONE', ( #100, #27, #159 ) ) ;
#115 = DIRECTION ( 'NONE',  ( -3.491481338843133355E-15, 1.224646799147353207E-16, -1.000000000000000000 ) ) ;
#116 = FACE_OUTER_BOUND ( 'NONE', #87, .T. ) ;
#117 = MECHANICAL_CONTEXT ( 'NONE', #177, 'mechanical' ) ;
#118 = COORDINATED_UNIVERSAL_TIME_OFFSET ( 1, 0, .AHEAD. ) ;
#119 = CIRCLE ( 'NONE', #67, 0.6249999999999996669 ) ;
#120 = DIRECTION ( 'NONE',  ( 3.491481338843133355E-15, -0.0000000000000000000, 1.000000000000000000 ) ) ;
#121 = PERSON_AND_ORGANIZATION_ROLE ( 'classification_officer' ) ;
#122 = CYLINDRICAL_SURFACE ( 'NONE', #107, 1.499999999999996447 ) ;
#123 = APPROVAL_STATUS ( 'not_yet_approved' ) ;
#124 = PERSON ( 'UNSPECIFIED', 'UNSPECIFIED', 'UNSPECIFIED', ('UNSPECIFIED'), ('UNSPECIFIED'), ('UNSPECIFIED') ) ;
#125 = EDGE_CURVE ( 'NONE', #35, #35, #142, .T. ) ;
#126 = CARTESIAN_POINT ( 'NONE',  ( 4.364351673553915905E-15, -1.807003620809179069E-16, 1.249999999999999778 ) ) ;
#127 = SECURITY_CLASSIFICATION ( '', '', #44 ) ;
#128 = EDGE_CURVE ( 'NONE', #109, #109, #141, .T. ) ;
#129 = APPROVAL_PERSON_ORGANIZATION ( #52, #90, #194 ) ;
#130 = FACE_BOUND ( 'NONE', #169, .T. ) ;
#131 =( NAMED_UNIT ( * ) SI_UNIT ( $, .STERADIAN. ) SOLID_ANGLE_UNIT ( ) );
#132 = CLOSED_SHELL ( 'NONE', ( #63, #163, #73, #113, #12, #86 ) ) ;
#133 = CARTESIAN_POINT ( 'NONE',  ( 4.364351673553915905E-15, -1.807003620809179069E-16, 1.249999999999999778 ) ) ;
#134 = FACE_OUTER_BOUND ( 'NONE', #168, .T. ) ;
#135 = DIRECTION ( 'NONE',  ( 0.0000000000000000000, 1.000000000000000000, 0.0000000000000000000 ) ) ;
#136 = CALENDAR_DATE ( 2021, 10, 11 ) ;
#137 = EDGE_LOOP ( 'NONE', ( #2 ) ) ;
#138 = PERSON_AND_ORGANIZATION_ROLE ( 'creator' ) ;
#139 = ORIENTED_EDGE ( 'NONE', *, *, #234, .T. ) ;
#140 = PLANE ( 'NONE',  #151 ) ;
#141 = CIRCLE ( 'NONE', #215, 0.6931483474218597118 ) ;
#142 = CIRCLE ( 'NONE', #40, 1.499999999999998446 ) ;
#143 = DIRECTION ( 'NONE',  ( 1.000000000000000000, 0.0000000000000000000, -3.469446951953616161E-15 ) ) ;
#144 = DIRECTION ( 'NONE',  ( 3.491481338843133355E-15, -1.224646799147353207E-16, 1.000000000000000000 ) ) ;
#145 = AXIS2_PLACEMENT_3D ( 'NONE', #20, #65, #206 ) ;
#146 = EDGE_CURVE ( 'NONE', #239, #239, #119, .T. ) ;
#147 = VERTEX_POINT ( 'NONE', #202 ) ;
#148 = CARTESIAN_POINT ( 'NONE',  ( 4.364351673553914328E-15, 0.0000000000000000000, 1.249999999999999334 ) ) ;
#149 = EDGE_LOOP ( 'NONE', ( #139 ) ) ;
#150 = FACE_BOUND ( 'NONE', #64, .T. ) ;
#151 = AXIS2_PLACEMENT_3D ( 'NONE', #126, #193, #95 ) ;
#152 = CYLINDRICAL_SURFACE ( 'NONE', #91, 0.6249999999999998890 ) ;
#153 = CALENDAR_DATE ( 2021, 10, 11 ) ;
#154 = EDGE_LOOP ( 'NONE', ( #191 ) ) ;
#155 = DIRECTION ( 'NONE',  ( 1.000000000000000000, 0.0000000000000000000, -3.491481338843133355E-15 ) ) ;
#156 = APPROVAL ( #71, 'UNSPECIFIED' ) ;
#157 = CARTESIAN_POINT ( 'NONE',  ( 1.326762908760390423E-13, 8.998558695971069014E-33, 38.00000000000000000 ) ) ;
#158 = AXIS2_PLACEMENT_3D ( 'NONE', #79, #57, #143 ) ;
#159 = ADVANCED_FACE ( 'NONE', ( #218 ), #96, .F. ) ;
#160 = DIRECTION ( 'NONE',  ( 1.000000000000000000, 0.0000000000000000000, -3.491481338843133355E-15 ) ) ;
#161 = CARTESIAN_POINT ( 'NONE',  ( 1.326762908760390423E-13, 1.199999999999994182, 38.00000000000000000 ) ) ;
#162 = CARTESIAN_POINT ( 'NONE',  ( 1.316288464743861212E-13, -4.616918432785521081E-15, 37.69999999999999574 ) ) ;
#163 = ADVANCED_FACE ( 'NONE', ( #74, #130 ), #211, .T. ) ;
#164 = CARTESIAN_POINT ( 'NONE',  ( 1.316288464743861212E-13, 1.499999999999994005, 37.69999999999999574 ) ) ;
#165 = AXIS2_PLACEMENT_3D ( 'NONE', #38, #203, #135 ) ;
#166 = CIRCLE ( 'NONE', #165, 1.199999999999998845 ) ;
#167 = CARTESIAN_POINT ( 'NONE',  ( 6.171675405779171497E-15, 0.0000000000000000000, 1.767638090205028156 ) ) ;
#168 = EDGE_LOOP ( 'NONE', ( #84 ) ) ;
#169 = EDGE_LOOP ( 'NONE', ( #187 ) ) ;
#170 = CIRCLE ( 'NONE', #230, 1.499999999999996225 ) ;
#171 = ORIENTED_EDGE ( 'NONE', *, *, #46, .F. ) ;
#172 = PRODUCT ( '64372', '64372', '', ( #117 ) ) ;
#173 = DIRECTION ( 'NONE',  ( 3.491481338843133355E-15, -0.0000000000000000000, 1.000000000000000000 ) ) ;
#174 = DATE_AND_TIME ( #227, #199 ) ;
#175 = FACE_OUTER_BOUND ( 'NONE', #210, .T. ) ;
#176 = CC_DESIGN_APPROVAL ( #185, ( #127 ) ) ;
#177 = APPLICATION_CONTEXT ( 'configuration controlled 3d designs of mechanical parts and assemblies' ) ;
#178 = PRODUCT_RELATED_PRODUCT_CATEGORY ( 'detail', '', ( #172 ) ) ;
#179 = CARTESIAN_POINT ( 'NONE',  ( 0.6931483474218659291, 0.0000000000000000000, 1.767638090205025714 ) ) ;
#180 = AXIS2_PLACEMENT_3D ( 'NONE', #18, #15, #221 ) ;
#181 = FACE_OUTER_BOUND ( 'NONE', #24, .T. ) ;
#182 = CC_DESIGN_PERSON_AND_ORGANIZATION_ASSIGNMENT ( #238, #82, ( #172 ) ) ;
#183 = DIRECTION ( 'NONE',  ( 3.491481338843133355E-15, -0.0000000000000000000, 1.000000000000000000 ) ) ;
#184 =( NAMED_UNIT ( * ) PLANE_ANGLE_UNIT ( ) SI_UNIT ( $, .RADIAN. ) );
#185 = APPROVAL ( #190, 'UNSPECIFIED' ) ;
#186 = ORIENTED_EDGE ( 'NONE', *, *, #128, .T. ) ;
#187 = ORIENTED_EDGE ( 'NONE', *, *, #196, .T. ) ;
#188 = CC_DESIGN_APPROVAL ( #156, ( #106 ) ) ;
#189 = DIRECTION ( 'NONE',  ( 1.000000000000000000, 0.0000000000000000000, -3.491481338843133355E-15 ) ) ;
#190 = APPROVAL_STATUS ( 'not_yet_approved' ) ;
#191 = ORIENTED_EDGE ( 'NONE', *, *, #234, .F. ) ;
#192 = APPLICATION_CONTEXT ( 'configuration controlled 3d designs of mechanical parts and assemblies' ) ;
#193 = DIRECTION ( 'NONE',  ( 3.491481338843133355E-15, -1.224646799147353207E-16, 1.000000000000000000 ) ) ;
#194 = APPROVAL_ROLE ( '' ) ;
#195 = APPROVAL_PERSON_ORGANIZATION ( #108, #156, #56 ) ;
#196 = EDGE_CURVE ( 'NONE', #60, #60, #166, .T. ) ;
#197 = CARTESIAN_POINT ( 'NONE',  ( 1.326762908760390423E-13, -4.653657836759941941E-15, 38.00000000000000000 ) ) ;
#198 = DATE_AND_TIME ( #153, #94 ) ;
#199 = LOCAL_TIME ( 8, 14, 27.00000000000000000, #118 ) ;
#200 = APPROVAL_DATE_TIME ( #78, #90 ) ;
#201 = FACE_OUTER_BOUND ( 'NONE', #226, .T. ) ;
#202 = CARTESIAN_POINT ( 'NONE',  ( 1.500000000000012879, 0.0000000000000000000, 4.778849451797619885 ) ) ;
#203 = DIRECTION ( 'NONE',  ( -3.491481338843133355E-15, 1.224646799147353207E-16, -1.000000000000000000 ) ) ;
#204 = AXIS2_PLACEMENT_3D ( 'NONE', #157, #231, #69 ) ;
#205 = CARTESIAN_POINT ( 'NONE',  ( 1.668526368209214768E-14, 0.0000000000000000000, 4.778849451797625214 ) ) ;
#206 = DIRECTION ( 'NONE',  ( 1.000000000000000000, 0.0000000000000000000, 0.0000000000000000000 ) ) ;
#207 = APPLICATION_PROTOCOL_DEFINITION ( 'international standard', 'config_control_design', 1994, #192 ) ;
#208 = EDGE_LOOP ( 'NONE', ( #171 ) ) ;
#209 = DATE_AND_TIME ( #26, #43 ) ;
#210 = EDGE_LOOP ( 'NONE', ( #228 ) ) ;
#211 = CONICAL_SURFACE ( 'NONE', #219, 1.199999999999998845, 0.7853981633974450594 ) ;
#212 = PERSON_AND_ORGANIZATION ( #124, #22 ) ;
#213 = FACE_OUTER_BOUND ( 'NONE', #137, .T. ) ;
#214 = PLANE ( 'NONE',  #204 ) ;
#215 = AXIS2_PLACEMENT_3D ( 'NONE', #167, #235, #55 ) ;
#216 = ADVANCED_BREP_SHAPE_REPRESENTATION ( '64372', ( #92, #93, #145 ), #61 ) ;
#217 = VERTEX_POINT ( 'NONE', #16 ) ;
#218 = FACE_OUTER_BOUND ( 'NONE', #208, .T. ) ;
#219 = AXIS2_PLACEMENT_3D ( 'NONE', #197, #115, #97 ) ;
#220 = DIRECTION ( 'NONE',  ( 1.000000000000000000, 0.0000000000000000000, -3.469446951953622866E-15 ) ) ;
#221 = DIRECTION ( 'NONE',  ( -4.275831445896958607E-31, -1.000000000000000000, -1.224646799147353207E-16 ) ) ;
#222 = CC_DESIGN_PERSON_AND_ORGANIZATION_ASSIGNMENT ( #5, #138, ( #13 ) ) ;
#223 = FACE_OUTER_BOUND ( 'NONE', #154, .T. ) ;
#224 = DESIGN_CONTEXT ( 'detailed design', #192, 'design' ) ;
#225 = FACE_OUTER_BOUND ( 'NONE', #28, .T. ) ;
#226 = EDGE_LOOP ( 'NONE', ( #66 ) ) ;
#227 = CALENDAR_DATE ( 2021, 10, 11 ) ;
#228 = ORIENTED_EDGE ( 'NONE', *, *, #196, .F. ) ;
#229 = COORDINATED_UNIVERSAL_TIME_OFFSET ( 1, 0, .AHEAD. ) ;
#230 = AXIS2_PLACEMENT_3D ( 'NONE', #75, #242, #220 ) ;
#231 = DIRECTION ( 'NONE',  ( -3.491481338843133355E-15, 1.224646799147353207E-16, -1.000000000000000000 ) ) ;
#232 = CC_DESIGN_PERSON_AND_ORGANIZATION_ASSIGNMENT ( #62, #25, ( #106 ) ) ;
#233 = AXIS2_PLACEMENT_3D ( 'NONE', #205, #173, #85 ) ;
#234 = EDGE_CURVE ( 'NONE', #147, #147, #170, .T. ) ;
#235 = DIRECTION ( 'NONE',  ( 3.491481338843133355E-15, -0.0000000000000000000, 1.000000000000000000 ) ) ;
#236 = CIRCLE ( 'NONE', #158, 0.6249999999999996669 ) ;
#237 = DIRECTION ( 'NONE',  ( 1.000000000000000000, 0.0000000000000000000, -3.469446951953616161E-15 ) ) ;
#238 = PERSON_AND_ORGANIZATION ( #124, #22 ) ;
#239 = VERTEX_POINT ( 'NONE', #240 ) ;
#240 = CARTESIAN_POINT ( 'NONE',  ( 0.6250000000000039968, 0.0000000000000000000, 1.249999999999996891 ) ) ;
#241 = EDGE_CURVE ( 'NONE', #39, #39, #236, .T. ) ;
#242 = DIRECTION ( 'NONE',  ( 3.491481338843133355E-15, -0.0000000000000000000, 1.000000000000000000 ) ) ;
#243 = EDGE_LOOP ( 'NONE', ( #4 ) ) ;
ENDSEC;
END-ISO-10303-21;
