ISO-10303-21;
HEADER;
FILE_DESCRIPTION (( 'STEP AP203' ),
    '1' );
FILE_NAME ('64371.step',
    '2021-11-10T07:14:27',
    ( '' ),
    ( '' ),
    'SwSTEP 2.0',
    'SolidWorks 2019',
    '' );
FILE_SCHEMA (( 'CONFIG_CONTROL_DESIGN' ));
ENDSEC;

DATA;
#1 = PERSON_AND_ORGANIZATION_ROLE ( 'creator' ) ;
#2 = CIRCLE ( 'NONE', #10, 0.5999999999999998668 ) ;
#3 = DESIGN_CONTEXT ( 'detailed design', #23, 'design' ) ;
#4 = APPROVAL_DATE_TIME ( #82, #159 ) ;
#5 = CALENDAR_DATE ( 2021, 10, 11 ) ;
#6 = ADVANCED_FACE ( 'NONE', ( #88, #28 ), #67, .T. ) ;
#7 = ORIENTED_EDGE ( 'NONE', *, *, #81, .F. ) ;
#8 = EDGE_LOOP ( 'NONE', ( #161 ) ) ;
#9 = ADVANCED_FACE ( 'NONE', ( #105, #201 ), #138, .T. ) ;
#10 = AXIS2_PLACEMENT_3D ( 'NONE', #113, #20, #204 ) ;
#11 = ORIENTED_EDGE ( 'NONE', *, *, #78, .F. ) ;
#12 = CARTESIAN_POINT ( 'NONE',  ( 0.6681483474218657959, 0.0000000000000000000, 1.717638090205025669 ) ) ;
#13 = AXIS2_PLACEMENT_3D ( 'NONE', #63, #212, #134 ) ;
#14 = EDGE_CURVE ( 'NONE', #168, #168, #162, .T. ) ;
#15 = SECURITY_CLASSIFICATION ( '', '', #223 ) ;
#16 = CARTESIAN_POINT ( 'NONE',  ( -1.786038389295302186E-30, 0.0000000000000000000, -5.115417256925931626E-16 ) ) ;
#17 = CARTESIAN_POINT ( 'NONE',  ( -6.413803915257457113E-31, 2.249659577954772199E-32, -1.836986451539393076E-16 ) ) ;
#18 = VERTEX_POINT ( 'NONE', #109 ) ;
#19 = CLOSED_SHELL ( 'NONE', ( #52, #200, #210 ) ) ;
#20 = DIRECTION ( 'NONE',  ( 3.491481338843133355E-15, -0.0000000000000000000, 1.000000000000000000 ) ) ;
#21 = PERSON_AND_ORGANIZATION ( #198, #220 ) ;
#22 = DATE_AND_TIME ( #46, #225 ) ;
#23 = APPLICATION_CONTEXT ( 'configuration controlled 3d designs of mechanical parts and assemblies' ) ;
#24 = APPLICATION_PROTOCOL_DEFINITION ( 'international standard', 'config_control_design', 1994, #76 ) ;
#25 = APPROVAL_STATUS ( 'not_yet_approved' ) ;
#26 = AXIS2_PLACEMENT_3D ( 'NONE', #39, #56, #93 ) ;
#27 = EDGE_LOOP ( 'NONE', ( #143 ) ) ;
#28 = FACE_OUTER_BOUND ( 'NONE', #182, .T. ) ;
#29 = CIRCLE ( 'NONE', #36, 1.499999999999998446 ) ;
#30 = CIRCLE ( 'NONE', #137, 1.199999999999998845 ) ;
#31 = CARTESIAN_POINT ( 'NONE',  ( 0.0000000000000000000, 0.0000000000000000000, 0.0000000000000000000 ) ) ;
#32 = ADVANCED_BREP_SHAPE_REPRESENTATION ( '64371', ( #57, #216, #13 ), #87 ) ;
#33 = EDGE_LOOP ( 'NONE', ( #196 ) ) ;
#34 = CARTESIAN_POINT ( 'NONE',  ( 1.500000000000013101, 0.0000000000000000000, 4.822150721986844246 ) ) ;
#35 =( LENGTH_UNIT ( ) NAMED_UNIT ( * ) SI_UNIT ( .MILLI., .METRE. ) );
#36 = AXIS2_PLACEMENT_3D ( 'NONE', #94, #77, #151 ) ;
#37 = DIRECTION ( 'NONE',  ( -4.275831445896958607E-31, -1.000000000000000000, -1.224646799147353207E-16 ) ) ;
#38 = PRODUCT_RELATED_PRODUCT_CATEGORY ( 'detail', '', ( #153 ) ) ;
#39 = CARTESIAN_POINT ( 'NONE',  ( 1.683644925890602920E-14, 0.0000000000000000000, 4.822150721986849575 ) ) ;
#40 = CALENDAR_DATE ( 2021, 10, 11 ) ;
#41 = PERSON_AND_ORGANIZATION ( #198, #220 ) ;
#42 = LOCAL_TIME ( 8, 14, 27.00000000000000000, #44 ) ;
#43 = APPROVAL_PERSON_ORGANIZATION ( #175, #132, #157 ) ;
#44 = COORDINATED_UNIVERSAL_TIME_OFFSET ( 1, 0, .AHEAD. ) ;
#45 = CC_DESIGN_PERSON_AND_ORGANIZATION_ASSIGNMENT ( #41, #139, ( #15 ) ) ;
#46 = CALENDAR_DATE ( 2021, 10, 11 ) ;
#47 = CARTESIAN_POINT ( 'NONE',  ( 1.683644925890602920E-14, 0.0000000000000000000, 4.822150721986849575 ) ) ;
#48 = DIRECTION ( 'NONE',  ( 1.000000000000000000, 0.0000000000000000000, -3.469446951953622866E-15 ) ) ;
#49 = DIRECTION ( 'NONE',  ( 0.0000000000000000000, 1.000000000000000000, 0.0000000000000000000 ) ) ;
#50 = LOCAL_TIME ( 8, 14, 27.00000000000000000, #79 ) ;
#51 = ORIENTED_EDGE ( 'NONE', *, *, #78, .T. ) ;
#52 = ADVANCED_FACE ( 'NONE', ( #234 ), #213, .T. ) ;
#53 = VERTEX_POINT ( 'NONE', #34 ) ;
#54 = CARTESIAN_POINT ( 'NONE',  ( 4.189777606611758449E-15, -1.734723475976811532E-16, 1.199999999999999734 ) ) ;
#55 = CC_DESIGN_PERSON_AND_ORGANIZATION_ASSIGNMENT ( #230, #1, ( #241 ) ) ;
#56 = DIRECTION ( 'NONE',  ( 3.491481338843133355E-15, -0.0000000000000000000, 1.000000000000000000 ) ) ;
#57 = MANIFOLD_SOLID_BREP ( 'Corps-Déplacer/Copier1[1]', #154 ) ;
#58 = DIRECTION ( 'NONE',  ( 3.491481338843133355E-15, -1.224646799147353207E-16, 1.000000000000000000 ) ) ;
#59 = DIRECTION ( 'NONE',  ( 3.491481338843133355E-15, -0.0000000000000000000, 1.000000000000000000 ) ) ;
#60 = DATE_TIME_ROLE ( 'creation_date' ) ;
#61 = PERSON_AND_ORGANIZATION ( #198, #220 ) ;
#62 = DATE_AND_TIME ( #103, #42 ) ;
#63 = CARTESIAN_POINT ( 'NONE',  ( 0.0000000000000000000, 0.0000000000000000000, 0.0000000000000000000 ) ) ;
#64 = AXIS2_PLACEMENT_3D ( 'NONE', #89, #68, #66 ) ;
#65 = APPROVAL_DATE_TIME ( #83, #132 ) ;
#66 = DIRECTION ( 'NONE',  ( -4.275831445896958607E-31, -1.000000000000000000, -1.224646799147353207E-16 ) ) ;
#67 = CYLINDRICAL_SURFACE ( 'NONE', #187, 1.499999999999996447 ) ;
#68 = DIRECTION ( 'NONE',  ( 3.491481338843133355E-15, -1.224646799147353207E-16, 1.000000000000000000 ) ) ;
#69 = EDGE_LOOP ( 'NONE', ( #126 ) ) ;
#70 = CARTESIAN_POINT ( 'NONE',  ( 0.5999999999999998668, 0.0000000000000000000, -2.094888803305879224E-15 ) ) ;
#71 = CARTESIAN_POINT ( 'NONE',  ( 0.6000000000000040856, 0.0000000000000000000, 1.199999999999996847 ) ) ;
#72 = EDGE_CURVE ( 'NONE', #239, #239, #30, .T. ) ;
#73 =( NAMED_UNIT ( * ) PLANE_ANGLE_UNIT ( ) SI_UNIT ( $, .RADIAN. ) );
#74 = CARTESIAN_POINT ( 'NONE',  ( 1.326762908760390423E-13, 1.199999999999994182, 38.00000000000000000 ) ) ;
#75 = CIRCLE ( 'NONE', #91, 0.5999999999999998668 ) ;
#76 = APPLICATION_CONTEXT ( 'configuration controlled 3d designs of mechanical parts and assemblies' ) ;
#77 = DIRECTION ( 'NONE',  ( -3.491481338843133355E-15, 1.224646799147353207E-16, -1.000000000000000000 ) ) ;
#78 = EDGE_CURVE ( 'NONE', #53, #53, #191, .T. ) ;
#79 = COORDINATED_UNIVERSAL_TIME_OFFSET ( 1, 0, .AHEAD. ) ;
#80 = PERSON_AND_ORGANIZATION ( #198, #220 ) ;
#81 = EDGE_CURVE ( 'NONE', #150, #150, #75, .T. ) ;
#82 = DATE_AND_TIME ( #243, #169 ) ;
#83 = DATE_AND_TIME ( #40, #195 ) ;
#84 = ORIENTED_EDGE ( 'NONE', *, *, #101, .T. ) ;
#85 = EDGE_CURVE ( 'NONE', #18, #18, #29, .T. ) ;
#86 = DIRECTION ( 'NONE',  ( -3.491481338843133355E-15, 1.224646799147353207E-16, -1.000000000000000000 ) ) ;
#87 =( GEOMETRIC_REPRESENTATION_CONTEXT ( 3 ) GLOBAL_UNCERTAINTY_ASSIGNED_CONTEXT ( ( #226 ) ) GLOBAL_UNIT_ASSIGNED_CONTEXT ( ( #35, #73, #99 ) ) REPRESENTATION_CONTEXT ( 'NONE', 'WORKASPACE' ) );
#88 = FACE_OUTER_BOUND ( 'NONE', #178, .T. ) ;
#89 = CARTESIAN_POINT ( 'NONE',  ( 4.189777606611758449E-15, -1.734723475976811532E-16, 1.199999999999999734 ) ) ;
#90 = ORIENTED_EDGE ( 'NONE', *, *, #72, .F. ) ;
#91 = AXIS2_PLACEMENT_3D ( 'NONE', #115, #96, #148 ) ;
#92 = VERTEX_POINT ( 'NONE', #71 ) ;
#93 = DIRECTION ( 'NONE',  ( 1.000000000000000000, 0.0000000000000000000, -3.469446951953622866E-15 ) ) ;
#94 = CARTESIAN_POINT ( 'NONE',  ( 1.316288464743861212E-13, -4.616918432785521081E-15, 37.69999999999999574 ) ) ;
#95 = AXIS2_PLACEMENT_3D ( 'NONE', #108, #235, #144 ) ;
#96 = DIRECTION ( 'NONE',  ( 3.491481338843133355E-15, -0.0000000000000000000, 1.000000000000000000 ) ) ;
#97 = ADVANCED_FACE ( 'NONE', ( #147, #242 ), #106, .F. ) ;
#98 = FACE_OUTER_BOUND ( 'NONE', #8, .T. ) ;
#99 =( NAMED_UNIT ( * ) SI_UNIT ( $, .STERADIAN. ) SOLID_ANGLE_UNIT ( ) );
#100 = APPROVAL_ROLE ( '' ) ;
#101 = EDGE_CURVE ( 'NONE', #183, #183, #110, .T. ) ;
#102 = DATE_TIME_ROLE ( 'classification_date' ) ;
#103 = CALENDAR_DATE ( 2021, 10, 11 ) ;
#104 = AXIS2_PLACEMENT_3D ( 'NONE', #16, #165, #237 ) ;
#105 = FACE_OUTER_BOUND ( 'NONE', #233, .T. ) ;
#106 = TOROIDAL_SURFACE ( 'NONE', #224, 2.600000000000000089, 2.000000000000000000 ) ;
#107 = DIRECTION ( 'NONE',  ( 1.000000000000000000, 0.0000000000000000000, -3.491481338843132961E-15 ) ) ;
#108 = CARTESIAN_POINT ( 'NONE',  ( 1.326762908760390423E-13, -4.653657836759941941E-15, 38.00000000000000000 ) ) ;
#109 = CARTESIAN_POINT ( 'NONE',  ( 1.316288464743861212E-13, 1.499999999999994005, 37.69999999999999574 ) ) ;
#110 = CIRCLE ( 'NONE', #158, 0.6681483474218599117 ) ;
#111 = CC_DESIGN_SECURITY_CLASSIFICATION ( #15, ( #199 ) ) ;
#112 = FACE_OUTER_BOUND ( 'NONE', #160, .T. ) ;
#113 = CARTESIAN_POINT ( 'NONE',  ( 4.189777606611756871E-15, 0.0000000000000000000, 1.199999999999999067 ) ) ;
#114 = ADVANCED_FACE ( 'NONE', ( #112 ), #238, .F. ) ;
#115 = CARTESIAN_POINT ( 'NONE',  ( 4.189777606611756871E-15, 0.0000000000000000000, 1.199999999999999067 ) ) ;
#116 = PRODUCT_DEFINITION_SHAPE ( 'NONE', 'NONE',  #241 ) ;
#117 = APPROVAL_STATUS ( 'not_yet_approved' ) ;
#118 = APPROVAL_PERSON_ORGANIZATION ( #21, #159, #100 ) ;
#119 = ADVANCED_FACE ( 'NONE', ( #202, #205 ), #145, .T. ) ;
#120 = EDGE_LOOP ( 'NONE', ( #214 ) ) ;
#121 = AXIS2_PLACEMENT_3D ( 'NONE', #54, #133, #37 ) ;
#122 = ORIENTED_EDGE ( 'NONE', *, *, #85, .F. ) ;
#123 = EDGE_LOOP ( 'NONE', ( #84 ) ) ;
#124 = EDGE_CURVE ( 'NONE', #92, #92, #2, .T. ) ;
#125 = AXIS2_PLACEMENT_3D ( 'NONE', #179, #140, #107 ) ;
#126 = ORIENTED_EDGE ( 'NONE', *, *, #14, .F. ) ;
#127 = PLANE ( 'NONE',  #240 ) ;
#128 = CC_DESIGN_DATE_AND_TIME_ASSIGNMENT ( #62, #60, ( #241 ) ) ;
#129 = FACE_OUTER_BOUND ( 'NONE', #215, .T. ) ;
#130 = DIRECTION ( 'NONE',  ( -3.491481338843133355E-15, 1.224646799147353207E-16, -1.000000000000000000 ) ) ;
#131 = PLANE ( 'NONE',  #184 ) ;
#132 = APPROVAL ( #25, 'UNSPECIFIED' ) ;
#133 = DIRECTION ( 'NONE',  ( 3.491481338843133355E-15, -1.224646799147353207E-16, 1.000000000000000000 ) ) ;
#134 = DIRECTION ( 'NONE',  ( 1.000000000000000000, 0.0000000000000000000, 0.0000000000000000000 ) ) ;
#135 = APPROVAL_ROLE ( '' ) ;
#136 = PERSON_AND_ORGANIZATION ( #198, #220 ) ;
#137 = AXIS2_PLACEMENT_3D ( 'NONE', #217, #164, #49 ) ;
#138 = CONICAL_SURFACE ( 'NONE', #95, 1.199999999999998845, 0.7853981633974450594 ) ;
#139 = PERSON_AND_ORGANIZATION_ROLE ( 'classification_officer' ) ;
#140 = DIRECTION ( 'NONE',  ( 3.491481338843133355E-15, -0.0000000000000000000, 1.000000000000000000 ) ) ;
#141 = DIRECTION ( 'NONE',  ( 3.491481338843133355E-15, -0.0000000000000000000, 1.000000000000000000 ) ) ;
#142 = APPROVAL_PERSON_ORGANIZATION ( #61, #174, #135 ) ;
#143 = ORIENTED_EDGE ( 'NONE', *, *, #72, .T. ) ;
#144 = DIRECTION ( 'NONE',  ( 0.0000000000000000000, 1.000000000000000000, 0.0000000000000000000 ) ) ;
#145 = CONICAL_SURFACE ( 'NONE', #26, 1.499999999999996225, 0.2617993877991427465 ) ;
#146 = DIRECTION ( 'NONE',  ( 1.000000000000000000, 0.0000000000000000000, -3.569932917849601733E-15 ) ) ;
#147 = FACE_OUTER_BOUND ( 'NONE', #33, .T. ) ;
#148 = DIRECTION ( 'NONE',  ( 1.000000000000000000, 0.0000000000000000000, -3.614007241618349165E-15 ) ) ;
#149 = CC_DESIGN_APPROVAL ( #159, ( #241 ) ) ;
#150 = VERTEX_POINT ( 'NONE', #221 ) ;
#151 = DIRECTION ( 'NONE',  ( 0.0000000000000000000, 1.000000000000000000, 0.0000000000000000000 ) ) ;
#152 = APPLICATION_PROTOCOL_DEFINITION ( 'international standard', 'config_control_design', 1994, #23 ) ;
#153 = PRODUCT ( '64371', '64371', '', ( #190 ) ) ;
#154 = CLOSED_SHELL ( 'NONE', ( #6, #9, #189, #97, #119, #114 ) ) ;
#155 = PERSON_AND_ORGANIZATION_ROLE ( 'design_supplier' ) ;
#156 = APPROVAL_DATE_TIME ( #192, #174 ) ;
#157 = APPROVAL_ROLE ( '' ) ;
#158 = AXIS2_PLACEMENT_3D ( 'NONE', #222, #59, #146 ) ;
#159 = APPROVAL ( #117, 'UNSPECIFIED' ) ;
#160 = EDGE_LOOP ( 'NONE', ( #7 ) ) ;
#161 = ORIENTED_EDGE ( 'NONE', *, *, #14, .T. ) ;
#162 = CIRCLE ( 'NONE', #125, 0.5999999999999998668 ) ;
#163 = ORIENTED_EDGE ( 'NONE', *, *, #101, .F. ) ;
#164 = DIRECTION ( 'NONE',  ( -3.491481338843133355E-15, 1.224646799147353207E-16, -1.000000000000000000 ) ) ;
#165 = DIRECTION ( 'NONE',  ( 3.491481338843133355E-15, -0.0000000000000000000, 1.000000000000000000 ) ) ;
#166 = FACE_OUTER_BOUND ( 'NONE', #69, .T. ) ;
#167 = CC_DESIGN_PERSON_AND_ORGANIZATION_ASSIGNMENT ( #80, #208, ( #199 ) ) ;
#168 = VERTEX_POINT ( 'NONE', #70 ) ;
#169 = LOCAL_TIME ( 8, 14, 27.00000000000000000, #207 ) ;
#170 = CC_DESIGN_APPROVAL ( #132, ( #15 ) ) ;
#171 = DIRECTION ( 'NONE',  ( 3.491481338843133355E-15, -0.0000000000000000000, 1.000000000000000000 ) ) ;
#172 = CYLINDRICAL_SURFACE ( 'NONE', #104, 0.5999999999999998668 ) ;
#173 = PERSON_AND_ORGANIZATION_ROLE ( 'design_owner' ) ;
#174 = APPROVAL ( #176, 'UNSPECIFIED' ) ;
#175 = PERSON_AND_ORGANIZATION ( #198, #220 ) ;
#176 = APPROVAL_STATUS ( 'not_yet_approved' ) ;
#177 = EDGE_LOOP ( 'NONE', ( #163 ) ) ;
#178 = EDGE_LOOP ( 'NONE', ( #197 ) ) ;
#179 = CARTESIAN_POINT ( 'NONE',  ( 0.0000000000000000000, 0.0000000000000000000, 0.0000000000000000000 ) ) ;
#180 = EDGE_LOOP ( 'NONE', ( #11 ) ) ;
#181 = CC_DESIGN_DATE_AND_TIME_ASSIGNMENT ( #22, #102, ( #15 ) ) ;
#182 = EDGE_LOOP ( 'NONE', ( #51 ) ) ;
#183 = VERTEX_POINT ( 'NONE', #12 ) ;
#184 = AXIS2_PLACEMENT_3D ( 'NONE', #218, #130, #185 ) ;
#185 = DIRECTION ( 'NONE',  ( 4.275831445896958607E-31, 1.000000000000000000, 1.224646799147353207E-16 ) ) ;
#186 = FACE_OUTER_BOUND ( 'NONE', #120, .T. ) ;
#187 = AXIS2_PLACEMENT_3D ( 'NONE', #31, #86, #232 ) ;
#188 = CARTESIAN_POINT ( 'NONE',  ( 4.189777606611756871E-15, 0.0000000000000000000, 1.199999999999999289 ) ) ;
#189 = ADVANCED_FACE ( 'NONE', ( #129 ), #131, .F. ) ;
#190 = MECHANICAL_CONTEXT ( 'NONE', #76, 'mechanical' ) ;
#191 = CIRCLE ( 'NONE', #211, 1.499999999999996225 ) ;
#192 = DATE_AND_TIME ( #5, #50 ) ;
#193 = COORDINATED_UNIVERSAL_TIME_OFFSET ( 1, 0, .AHEAD. ) ;
#194 = EDGE_LOOP ( 'NONE', ( #236 ) ) ;
#195 = LOCAL_TIME ( 8, 14, 27.00000000000000000, #228 ) ;
#196 = ORIENTED_EDGE ( 'NONE', *, *, #81, .T. ) ;
#197 = ORIENTED_EDGE ( 'NONE', *, *, #85, .T. ) ;
#198 = PERSON ( 'UNSPECIFIED', 'UNSPECIFIED', 'UNSPECIFIED', ('UNSPECIFIED'), ('UNSPECIFIED'), ('UNSPECIFIED') ) ;
#199 = PRODUCT_DEFINITION_FORMATION_WITH_SPECIFIED_SOURCE ( 'ANY', '', #153, .NOT_KNOWN. ) ;
#200 = ADVANCED_FACE ( 'NONE', ( #98, #186 ), #172, .T. ) ;
#201 = FACE_BOUND ( 'NONE', #27, .T. ) ;
#202 = FACE_BOUND ( 'NONE', #123, .T. ) ;
#203 = DIRECTION ( 'NONE',  ( -4.275831445896958607E-31, -1.000000000000000000, -1.224646799147353207E-16 ) ) ;
#204 = DIRECTION ( 'NONE',  ( 1.000000000000000000, 0.0000000000000000000, -3.614007241618349165E-15 ) ) ;
#205 = FACE_OUTER_BOUND ( 'NONE', #180, .T. ) ;
#206 = CC_DESIGN_PERSON_AND_ORGANIZATION_ASSIGNMENT ( #209, #155, ( #199 ) ) ;
#207 = COORDINATED_UNIVERSAL_TIME_OFFSET ( 1, 0, .AHEAD. ) ;
#208 = PERSON_AND_ORGANIZATION_ROLE ( 'creator' ) ;
#209 = PERSON_AND_ORGANIZATION ( #198, #220 ) ;
#210 = ADVANCED_FACE ( 'NONE', ( #166 ), #127, .F. ) ;
#211 = AXIS2_PLACEMENT_3D ( 'NONE', #47, #141, #48 ) ;
#212 = DIRECTION ( 'NONE',  ( 0.0000000000000000000, 0.0000000000000000000, 1.000000000000000000 ) ) ;
#213 = PLANE ( 'NONE',  #64 ) ;
#214 = ORIENTED_EDGE ( 'NONE', *, *, #124, .F. ) ;
#215 = EDGE_LOOP ( 'NONE', ( #90 ) ) ;
#216 = MANIFOLD_SOLID_BREP ( 'Corps-Déplacer/Copier1[2]', #19 ) ;
#217 = CARTESIAN_POINT ( 'NONE',  ( 1.326762908760390423E-13, -4.653657836759941941E-15, 38.00000000000000000 ) ) ;
#218 = CARTESIAN_POINT ( 'NONE',  ( 1.326762908760390423E-13, 8.998558695971069014E-33, 38.00000000000000000 ) ) ;
#219 = DIRECTION ( 'NONE',  ( 1.000000000000000000, 0.0000000000000000000, -3.491481338843132961E-15 ) ) ;
#220 = ORGANIZATION ( 'UNSPECIFIED', 'UNSPECIFIED', '' ) ;
#221 = CARTESIAN_POINT ( 'NONE',  ( 0.6000000000000040856, 0.0000000000000000000, 1.199999999999996847 ) ) ;
#222 = CARTESIAN_POINT ( 'NONE',  ( 5.997101338837014041E-15, 0.0000000000000000000, 1.717638090205027890 ) ) ;
#223 = SECURITY_CLASSIFICATION_LEVEL ( 'unclassified' ) ;
#224 = AXIS2_PLACEMENT_3D ( 'NONE', #188, #171, #219 ) ;
#225 = LOCAL_TIME ( 8, 14, 27.00000000000000000, #193 ) ;
#226 = UNCERTAINTY_MEASURE_WITH_UNIT (LENGTH_MEASURE( 1.000000000000000082E-05 ), #35, 'distance_accuracy_value', 'NONE');
#227 = SHAPE_DEFINITION_REPRESENTATION ( #116, #32 ) ;
#228 = COORDINATED_UNIVERSAL_TIME_OFFSET ( 1, 0, .AHEAD. ) ;
#229 = CC_DESIGN_APPROVAL ( #174, ( #199 ) ) ;
#230 = PERSON_AND_ORGANIZATION ( #198, #220 ) ;
#231 = CC_DESIGN_PERSON_AND_ORGANIZATION_ASSIGNMENT ( #136, #173, ( #153 ) ) ;
#232 = DIRECTION ( 'NONE',  ( 4.275831445896958607E-31, 1.000000000000000000, 1.224646799147352961E-16 ) ) ;
#233 = EDGE_LOOP ( 'NONE', ( #122 ) ) ;
#234 = FACE_OUTER_BOUND ( 'NONE', #194, .T. ) ;
#235 = DIRECTION ( 'NONE',  ( -3.491481338843133355E-15, 1.224646799147353207E-16, -1.000000000000000000 ) ) ;
#236 = ORIENTED_EDGE ( 'NONE', *, *, #124, .T. ) ;
#237 = DIRECTION ( 'NONE',  ( 1.000000000000000000, 0.0000000000000000000, -3.491481338843132961E-15 ) ) ;
#238 = PLANE ( 'NONE',  #121 ) ;
#239 = VERTEX_POINT ( 'NONE', #74 ) ;
#240 = AXIS2_PLACEMENT_3D ( 'NONE', #17, #58, #203 ) ;
#241 = PRODUCT_DEFINITION ( 'UNKNOWN', '', #199, #3 ) ;
#242 = FACE_OUTER_BOUND ( 'NONE', #177, .T. ) ;
#243 = CALENDAR_DATE ( 2021, 10, 11 ) ;
ENDSEC;
END-ISO-10303-21;
