ISO-10303-21;
HEADER;
FILE_DESCRIPTION (( 'STEP AP203' ),
    '1' );
FILE_NAME ('64370.step',
    '2021-11-10T07:14:26',
    ( '' ),
    ( '' ),
    'SwSTEP 2.0',
    'SolidWorks 2019',
    '' );
FILE_SCHEMA (( 'CONFIG_CONTROL_DESIGN' ));
ENDSEC;

DATA;
#1 = UNCERTAINTY_MEASURE_WITH_UNIT (LENGTH_MEASURE( 1.000000000000000082E-05 ), #48, 'distance_accuracy_value', 'NONE');
#2 = CARTESIAN_POINT ( 'NONE',  ( 1.316288464743861212E-13, 1.499999999999994005, 37.69999999999999574 ) ) ;
#3 = CARTESIAN_POINT ( 'NONE',  ( 1.326762908760390423E-13, 1.199999999999994182, 38.00000000000000000 ) ) ;
#4 = APPROVAL_DATE_TIME ( #72, #14 ) ;
#5 = DATE_AND_TIME ( #10, #231 ) ;
#6 = LOCAL_TIME ( 8, 14, 26.00000000000000000, #9 ) ;
#7 = ADVANCED_FACE ( 'NONE', ( #131 ), #243, .T. ) ;
#8 = PRODUCT_DEFINITION_FORMATION_WITH_SPECIFIED_SOURCE ( 'ANY', '', #205, .NOT_KNOWN. ) ;
#9 = COORDINATED_UNIVERSAL_TIME_OFFSET ( 1, 0, .AHEAD. ) ;
#10 = CALENDAR_DATE ( 2021, 10, 11 ) ;
#11 = TOROIDAL_SURFACE ( 'NONE', #150, 2.575000000000000178, 2.000000000000000000 ) ;
#12 = CALENDAR_DATE ( 2021, 10, 11 ) ;
#13 = ORIENTED_EDGE ( 'NONE', *, *, #123, .F. ) ;
#14 = APPROVAL ( #107, 'UNSPECIFIED' ) ;
#15 = DIRECTION ( 'NONE',  ( 1.000000000000000000, 0.0000000000000000000, -3.469446951953622866E-15 ) ) ;
#16 = FACE_OUTER_BOUND ( 'NONE', #201, .T. ) ;
#17 = CIRCLE ( 'NONE', #128, 1.499999999999996225 ) ;
#18 = CARTESIAN_POINT ( 'NONE',  ( 4.015203539669603359E-15, -1.662443331144444734E-16, 1.149999999999999911 ) ) ;
#19 = APPROVAL_PERSON_ORGANIZATION ( #173, #14, #176 ) ;
#20 = DIRECTION ( 'NONE',  ( 3.491481338843133355E-15, -0.0000000000000000000, 1.000000000000000000 ) ) ;
#21 = DIRECTION ( 'NONE',  ( 3.491481338843133355E-15, -0.0000000000000000000, 1.000000000000000000 ) ) ;
#22 = AXIS2_PLACEMENT_3D ( 'NONE', #64, #45, #225 ) ;
#23 = ADVANCED_FACE ( 'NONE', ( #63, #184 ), #169, .T. ) ;
#24 = DIRECTION ( 'NONE',  ( 0.0000000000000000000, 0.0000000000000000000, 1.000000000000000000 ) ) ;
#25 = CARTESIAN_POINT ( 'NONE',  ( 1.500000000000013101, 0.0000000000000000000, 4.865451992176068607 ) ) ;
#26 = CYLINDRICAL_SURFACE ( 'NONE', #215, 0.5749999999999999556 ) ;
#27 = AXIS2_PLACEMENT_3D ( 'NONE', #146, #97, #166 ) ;
#28 = PLANE ( 'NONE',  #228 ) ;
#29 = APPROVAL ( #105, 'UNSPECIFIED' ) ;
#30 = APPROVAL_PERSON_ORGANIZATION ( #74, #29, #49 ) ;
#31 = EDGE_CURVE ( 'NONE', #84, #84, #56, .T. ) ;
#32 = CALENDAR_DATE ( 2021, 10, 11 ) ;
#33 = ORIENTED_EDGE ( 'NONE', *, *, #196, .T. ) ;
#34 = CC_DESIGN_APPROVAL ( #29, ( #143 ) ) ;
#35 = ORGANIZATION ( 'UNSPECIFIED', 'UNSPECIFIED', '' ) ;
#36 = FACE_BOUND ( 'NONE', #238, .T. ) ;
#37 = DIRECTION ( 'NONE',  ( 3.491481338843133355E-15, -1.224646799147353207E-16, 1.000000000000000000 ) ) ;
#38 = DIRECTION ( 'NONE',  ( 1.000000000000000000, 0.0000000000000000000, -3.394024192128535962E-15 ) ) ;
#39 = DIRECTION ( 'NONE',  ( 1.000000000000000000, 0.0000000000000000000, -3.491481338843133750E-15 ) ) ;
#40 = CARTESIAN_POINT ( 'NONE',  ( 1.326762908760390423E-13, -4.653657836759941941E-15, 38.00000000000000000 ) ) ;
#41 = PLANE ( 'NONE',  #22 ) ;
#42 = CARTESIAN_POINT ( 'NONE',  ( 0.6431483474218658847, 0.0000000000000000000, 1.667638090205026069 ) ) ;
#43 = VERTEX_POINT ( 'NONE', #42 ) ;
#44 = ADVANCED_BREP_SHAPE_REPRESENTATION ( '64370', ( #53, #204, #180 ), #214 ) ;
#45 = DIRECTION ( 'NONE',  ( -3.491481338843133355E-15, 1.224646799147353207E-16, -1.000000000000000000 ) ) ;
#46 = CC_DESIGN_PERSON_AND_ORGANIZATION_ASSIGNMENT ( #141, #122, ( #8 ) ) ;
#47 = AXIS2_PLACEMENT_3D ( 'NONE', #239, #21, #79 ) ;
#48 =( LENGTH_UNIT ( ) NAMED_UNIT ( * ) SI_UNIT ( .MILLI., .METRE. ) );
#49 = APPROVAL_ROLE ( '' ) ;
#50 = APPROVAL_DATE_TIME ( #5, #206 ) ;
#51 = PERSON_AND_ORGANIZATION ( #113, #35 ) ;
#52 = PERSON_AND_ORGANIZATION_ROLE ( 'creator' ) ;
#53 = MANIFOLD_SOLID_BREP ( 'Corps-Déplacer/Copier1[1]', #200 ) ;
#54 = PRODUCT_DEFINITION ( 'UNKNOWN', '', #8, #83 ) ;
#55 = EDGE_LOOP ( 'NONE', ( #203 ) ) ;
#56 = CIRCLE ( 'NONE', #70, 0.5749999999999999556 ) ;
#57 = DIRECTION ( 'NONE',  ( 3.491481338843133355E-15, -0.0000000000000000000, 1.000000000000000000 ) ) ;
#58 = ADVANCED_FACE ( 'NONE', ( #36, #182 ), #237, .T. ) ;
#59 = DIRECTION ( 'NONE',  ( -4.275831445896958607E-31, -1.000000000000000000, -1.224646799147353207E-16 ) ) ;
#60 = CARTESIAN_POINT ( 'NONE',  ( 1.316288464743861212E-13, -4.616918432785521081E-15, 37.69999999999999574 ) ) ;
#61 = CIRCLE ( 'NONE', #91, 1.499999999999998446 ) ;
#62 = DIRECTION ( 'NONE',  ( 1.000000000000000000, 0.0000000000000000000, -3.469446951953622866E-15 ) ) ;
#63 = FACE_OUTER_BOUND ( 'NONE', #92, .T. ) ;
#64 = CARTESIAN_POINT ( 'NONE',  ( 1.326762908760390423E-13, 8.998558695971069014E-33, 38.00000000000000000 ) ) ;
#65 = CIRCLE ( 'NONE', #118, 0.5749999999999999556 ) ;
#66 = DIRECTION ( 'NONE',  ( 1.000000000000000000, 0.0000000000000000000, 0.0000000000000000000 ) ) ;
#67 = VERTEX_POINT ( 'NONE', #2 ) ;
#68 = APPLICATION_PROTOCOL_DEFINITION ( 'international standard', 'config_control_design', 1994, #76 ) ;
#69 = CC_DESIGN_SECURITY_CLASSIFICATION ( #143, ( #8 ) ) ;
#70 = AXIS2_PLACEMENT_3D ( 'NONE', #80, #136, #38 ) ;
#71 = CARTESIAN_POINT ( 'NONE',  ( 0.0000000000000000000, 0.0000000000000000000, 0.0000000000000000000 ) ) ;
#72 = DATE_AND_TIME ( #32, #171 ) ;
#73 = COORDINATED_UNIVERSAL_TIME_OFFSET ( 1, 0, .AHEAD. ) ;
#74 = PERSON_AND_ORGANIZATION ( #113, #35 ) ;
#75 = EDGE_LOOP ( 'NONE', ( #33 ) ) ;
#76 = APPLICATION_CONTEXT ( 'configuration controlled 3d designs of mechanical parts and assemblies' ) ;
#77 = CARTESIAN_POINT ( 'NONE',  ( 1.698763483571990757E-14, 0.0000000000000000000, 4.865451992176073936 ) ) ;
#78 = EDGE_CURVE ( 'NONE', #174, #174, #17, .T. ) ;
#79 = DIRECTION ( 'NONE',  ( 1.000000000000000000, 0.0000000000000000000, -3.371546166080231443E-15 ) ) ;
#80 = CARTESIAN_POINT ( 'NONE',  ( 4.015203539669600992E-15, 0.0000000000000000000, 1.149999999999999245 ) ) ;
#81 = CIRCLE ( 'NONE', #138, 0.5749999999999999556 ) ;
#82 = DIRECTION ( 'NONE',  ( -3.491481338843133355E-15, 1.224646799147353207E-16, -1.000000000000000000 ) ) ;
#83 = DESIGN_CONTEXT ( 'detailed design', #85, 'design' ) ;
#84 = VERTEX_POINT ( 'NONE', #189 ) ;
#85 = APPLICATION_CONTEXT ( 'configuration controlled 3d designs of mechanical parts and assemblies' ) ;
#86 = ADVANCED_FACE ( 'NONE', ( #16, #95 ), #168, .T. ) ;
#87 = FACE_OUTER_BOUND ( 'NONE', #94, .T. ) ;
#88 = CC_DESIGN_APPROVAL ( #206, ( #8 ) ) ;
#89 = CC_DESIGN_DATE_AND_TIME_ASSIGNMENT ( #108, #161, ( #143 ) ) ;
#90 = PERSON_AND_ORGANIZATION_ROLE ( 'creator' ) ;
#91 = AXIS2_PLACEMENT_3D ( 'NONE', #60, #133, #115 ) ;
#92 = EDGE_LOOP ( 'NONE', ( #148 ) ) ;
#93 = SHAPE_DEFINITION_REPRESENTATION ( #240, #44 ) ;
#94 = EDGE_LOOP ( 'NONE', ( #112 ) ) ;
#95 = FACE_OUTER_BOUND ( 'NONE', #220, .T. ) ;
#96 = AXIS2_PLACEMENT_3D ( 'NONE', #77, #57, #15 ) ;
#97 = DIRECTION ( 'NONE',  ( -3.491481338843133355E-15, 1.224646799147353207E-16, -1.000000000000000000 ) ) ;
#98 = DIRECTION ( 'NONE',  ( 1.000000000000000000, 0.0000000000000000000, -3.394024192128535962E-15 ) ) ;
#99 = DIRECTION ( 'NONE',  ( 0.0000000000000000000, 1.000000000000000000, 0.0000000000000000000 ) ) ;
#100 = FACE_OUTER_BOUND ( 'NONE', #218, .T. ) ;
#101 = APPLICATION_PROTOCOL_DEFINITION ( 'international standard', 'config_control_design', 1994, #85 ) ;
#102 = DIRECTION ( 'NONE',  ( 3.491481338843133355E-15, -0.0000000000000000000, 1.000000000000000000 ) ) ;
#103 = FACE_OUTER_BOUND ( 'NONE', #110, .T. ) ;
#104 = MECHANICAL_CONTEXT ( 'NONE', #76, 'mechanical' ) ;
#105 = APPROVAL_STATUS ( 'not_yet_approved' ) ;
#106 = CIRCLE ( 'NONE', #47, 0.6431483474218600005 ) ;
#107 = APPROVAL_STATUS ( 'not_yet_approved' ) ;
#108 = DATE_AND_TIME ( #12, #132 ) ;
#109 = CC_DESIGN_DATE_AND_TIME_ASSIGNMENT ( #144, #160, ( #54 ) ) ;
#110 = EDGE_LOOP ( 'NONE', ( #163 ) ) ;
#111 = EDGE_LOOP ( 'NONE', ( #13 ) ) ;
#112 = ORIENTED_EDGE ( 'NONE', *, *, #196, .F. ) ;
#113 = PERSON ( 'UNSPECIFIED', 'UNSPECIFIED', 'UNSPECIFIED', ('UNSPECIFIED'), ('UNSPECIFIED'), ('UNSPECIFIED') ) ;
#114 = EDGE_LOOP ( 'NONE', ( #216 ) ) ;
#115 = DIRECTION ( 'NONE',  ( 0.0000000000000000000, 1.000000000000000000, 0.0000000000000000000 ) ) ;
#116 = CARTESIAN_POINT ( 'NONE',  ( -6.413803915257457113E-31, 2.249659577954772199E-32, -1.836986451539393076E-16 ) ) ;
#117 = DIRECTION ( 'NONE',  ( 1.000000000000000000, 0.0000000000000000000, -3.491481338843132961E-15 ) ) ;
#118 = AXIS2_PLACEMENT_3D ( 'NONE', #167, #186, #39 ) ;
#119 = FACE_OUTER_BOUND ( 'NONE', #199, .T. ) ;
#120 = AXIS2_PLACEMENT_3D ( 'NONE', #18, #198, #149 ) ;
#121 = FACE_OUTER_BOUND ( 'NONE', #114, .T. ) ;
#122 = PERSON_AND_ORGANIZATION_ROLE ( 'design_supplier' ) ;
#123 = EDGE_CURVE ( 'NONE', #139, #139, #65, .T. ) ;
#124 = CALENDAR_DATE ( 2021, 10, 11 ) ;
#125 = PERSON_AND_ORGANIZATION ( #113, #35 ) ;
#126 = COORDINATED_UNIVERSAL_TIME_OFFSET ( 1, 0, .AHEAD. ) ;
#127 = APPROVAL_DATE_TIME ( #159, #29 ) ;
#128 = AXIS2_PLACEMENT_3D ( 'NONE', #164, #147, #62 ) ;
#129 = PRODUCT_RELATED_PRODUCT_CATEGORY ( 'detail', '', ( #205 ) ) ;
#130 = FACE_OUTER_BOUND ( 'NONE', #111, .T. ) ;
#131 = FACE_OUTER_BOUND ( 'NONE', #213, .T. ) ;
#132 = LOCAL_TIME ( 8, 14, 26.00000000000000000, #126 ) ;
#133 = DIRECTION ( 'NONE',  ( -3.491481338843133355E-15, 1.224646799147353207E-16, -1.000000000000000000 ) ) ;
#134 = CC_DESIGN_PERSON_AND_ORGANIZATION_ASSIGNMENT ( #140, #188, ( #205 ) ) ;
#135 = ORIENTED_EDGE ( 'NONE', *, *, #165, .F. ) ;
#136 = DIRECTION ( 'NONE',  ( 3.491481338843133355E-15, -0.0000000000000000000, 1.000000000000000000 ) ) ;
#137 = DIRECTION ( 'NONE',  ( 1.000000000000000000, 0.0000000000000000000, -3.491481338843133750E-15 ) ) ;
#138 = AXIS2_PLACEMENT_3D ( 'NONE', #185, #20, #98 ) ;
#139 = VERTEX_POINT ( 'NONE', #157 ) ;
#140 = PERSON_AND_ORGANIZATION ( #113, #35 ) ;
#141 = PERSON_AND_ORGANIZATION ( #113, #35 ) ;
#142 = PERSON_AND_ORGANIZATION ( #113, #35 ) ;
#143 = SECURITY_CLASSIFICATION ( '', '', #194 ) ;
#144 = DATE_AND_TIME ( #124, #6 ) ;
#145 = ORIENTED_EDGE ( 'NONE', *, *, #78, .T. ) ;
#146 = CARTESIAN_POINT ( 'NONE',  ( 0.0000000000000000000, 0.0000000000000000000, 0.0000000000000000000 ) ) ;
#147 = DIRECTION ( 'NONE',  ( 3.491481338843133355E-15, -0.0000000000000000000, 1.000000000000000000 ) ) ;
#148 = ORIENTED_EDGE ( 'NONE', *, *, #177, .F. ) ;
#149 = DIRECTION ( 'NONE',  ( -4.275831445896958607E-31, -1.000000000000000000, -1.224646799147353207E-16 ) ) ;
#150 = AXIS2_PLACEMENT_3D ( 'NONE', #154, #172, #117 ) ;
#151 = ORIENTED_EDGE ( 'NONE', *, *, #31, .T. ) ;
#152 = ADVANCED_FACE ( 'NONE', ( #130 ), #217, .F. ) ;
#153 =( NAMED_UNIT ( * ) PLANE_ANGLE_UNIT ( ) SI_UNIT ( $, .RADIAN. ) );
#154 = CARTESIAN_POINT ( 'NONE',  ( 4.015203539669601781E-15, 0.0000000000000000000, 1.149999999999999467 ) ) ;
#155 = CC_DESIGN_PERSON_AND_ORGANIZATION_ASSIGNMENT ( #142, #90, ( #54 ) ) ;
#156 = DIRECTION ( 'NONE',  ( 3.491481338843133355E-15, -1.224646799147353207E-16, 1.000000000000000000 ) ) ;
#157 = CARTESIAN_POINT ( 'NONE',  ( 0.5749999999999999556, 0.0000000000000000000, -2.007601769834801679E-15 ) ) ;
#158 = AXIS2_PLACEMENT_3D ( 'NONE', #116, #37, #59 ) ;
#159 = DATE_AND_TIME ( #193, #226 ) ;
#160 = DATE_TIME_ROLE ( 'creation_date' ) ;
#161 = DATE_TIME_ROLE ( 'classification_date' ) ;
#162 = CC_DESIGN_PERSON_AND_ORGANIZATION_ASSIGNMENT ( #125, #52, ( #8 ) ) ;
#163 = ORIENTED_EDGE ( 'NONE', *, *, #123, .T. ) ;
#164 = CARTESIAN_POINT ( 'NONE',  ( 1.698763483571990757E-14, 0.0000000000000000000, 4.865451992176073936 ) ) ;
#165 = EDGE_CURVE ( 'NONE', #43, #43, #106, .T. ) ;
#166 = DIRECTION ( 'NONE',  ( 4.275831445896958607E-31, 1.000000000000000000, 1.224646799147352961E-16 ) ) ;
#167 = CARTESIAN_POINT ( 'NONE',  ( 0.0000000000000000000, 0.0000000000000000000, 0.0000000000000000000 ) ) ;
#168 = CYLINDRICAL_SURFACE ( 'NONE', #27, 1.499999999999996447 ) ;
#169 = CONICAL_SURFACE ( 'NONE', #232, 1.199999999999998845, 0.7853981633974450594 ) ;
#170 = ORIENTED_EDGE ( 'NONE', *, *, #192, .F. ) ;
#171 = LOCAL_TIME ( 8, 14, 26.00000000000000000, #179 ) ;
#172 = DIRECTION ( 'NONE',  ( 3.491481338843133355E-15, -0.0000000000000000000, 1.000000000000000000 ) ) ;
#173 = PERSON_AND_ORGANIZATION ( #113, #35 ) ;
#174 = VERTEX_POINT ( 'NONE', #25 ) ;
#175 =( NAMED_UNIT ( * ) SI_UNIT ( $, .STERADIAN. ) SOLID_ANGLE_UNIT ( ) );
#176 = APPROVAL_ROLE ( '' ) ;
#177 = EDGE_CURVE ( 'NONE', #67, #67, #61, .T. ) ;
#178 = PERSON_AND_ORGANIZATION ( #113, #35 ) ;
#179 = COORDINATED_UNIVERSAL_TIME_OFFSET ( 1, 0, .AHEAD. ) ;
#180 = AXIS2_PLACEMENT_3D ( 'NONE', #71, #24, #66 ) ;
#181 = ORIENTED_EDGE ( 'NONE', *, *, #165, .T. ) ;
#182 = FACE_OUTER_BOUND ( 'NONE', #55, .T. ) ;
#183 = DIRECTION ( 'NONE',  ( 0.0000000000000000000, 1.000000000000000000, 0.0000000000000000000 ) ) ;
#184 = FACE_BOUND ( 'NONE', #75, .T. ) ;
#185 = CARTESIAN_POINT ( 'NONE',  ( 4.015203539669600992E-15, 0.0000000000000000000, 1.149999999999999245 ) ) ;
#186 = DIRECTION ( 'NONE',  ( 3.491481338843133355E-15, -0.0000000000000000000, 1.000000000000000000 ) ) ;
#187 = CC_DESIGN_PERSON_AND_ORGANIZATION_ASSIGNMENT ( #51, #230, ( #143 ) ) ;
#188 = PERSON_AND_ORGANIZATION_ROLE ( 'design_owner' ) ;
#189 = CARTESIAN_POINT ( 'NONE',  ( 0.5750000000000039524, 0.0000000000000000000, 1.149999999999997469 ) ) ;
#190 = CARTESIAN_POINT ( 'NONE',  ( -1.786038389295302186E-30, 0.0000000000000000000, -5.115417256925931626E-16 ) ) ;
#191 = CLOSED_SHELL ( 'NONE', ( #7, #241, #152 ) ) ;
#192 = EDGE_CURVE ( 'NONE', #207, #207, #81, .T. ) ;
#193 = CALENDAR_DATE ( 2021, 10, 11 ) ;
#194 = SECURITY_CLASSIFICATION_LEVEL ( 'unclassified' ) ;
#195 = EDGE_LOOP ( 'NONE', ( #170 ) ) ;
#196 = EDGE_CURVE ( 'NONE', #227, #227, #210, .T. ) ;
#197 = CC_DESIGN_APPROVAL ( #14, ( #54 ) ) ;
#198 = DIRECTION ( 'NONE',  ( 3.491481338843133355E-15, -1.224646799147353207E-16, 1.000000000000000000 ) ) ;
#199 = EDGE_LOOP ( 'NONE', ( #234 ) ) ;
#200 = CLOSED_SHELL ( 'NONE', ( #86, #23, #235, #212, #58, #202 ) ) ;
#201 = EDGE_LOOP ( 'NONE', ( #236 ) ) ;
#202 = ADVANCED_FACE ( 'NONE', ( #209 ), #28, .F. ) ;
#203 = ORIENTED_EDGE ( 'NONE', *, *, #78, .F. ) ;
#204 = MANIFOLD_SOLID_BREP ( 'Corps-Déplacer/Copier1[2]', #191 ) ;
#205 = PRODUCT ( '64370', '64370', '', ( #104 ) ) ;
#206 = APPROVAL ( #233, 'UNSPECIFIED' ) ;
#207 = VERTEX_POINT ( 'NONE', #224 ) ;
#208 = DIRECTION ( 'NONE',  ( -4.275831445896958607E-31, -1.000000000000000000, -1.224646799147353207E-16 ) ) ;
#209 = FACE_OUTER_BOUND ( 'NONE', #195, .T. ) ;
#210 = CIRCLE ( 'NONE', #223, 1.199999999999998845 ) ;
#211 = COORDINATED_UNIVERSAL_TIME_OFFSET ( 1, 0, .AHEAD. ) ;
#212 = ADVANCED_FACE ( 'NONE', ( #121, #100 ), #11, .F. ) ;
#213 = EDGE_LOOP ( 'NONE', ( #151 ) ) ;
#214 =( GEOMETRIC_REPRESENTATION_CONTEXT ( 3 ) GLOBAL_UNCERTAINTY_ASSIGNED_CONTEXT ( ( #1 ) ) GLOBAL_UNIT_ASSIGNED_CONTEXT ( ( #48, #153, #175 ) ) REPRESENTATION_CONTEXT ( 'NONE', 'WORKASPACE' ) );
#215 = AXIS2_PLACEMENT_3D ( 'NONE', #190, #102, #137 ) ;
#216 = ORIENTED_EDGE ( 'NONE', *, *, #192, .T. ) ;
#217 = PLANE ( 'NONE',  #158 ) ;
#218 = EDGE_LOOP ( 'NONE', ( #135 ) ) ;
#219 = DIRECTION ( 'NONE',  ( -3.491481338843133355E-15, 1.224646799147353207E-16, -1.000000000000000000 ) ) ;
#220 = EDGE_LOOP ( 'NONE', ( #145 ) ) ;
#221 = CARTESIAN_POINT ( 'NONE',  ( 4.015203539669603359E-15, -1.662443331144444734E-16, 1.149999999999999911 ) ) ;
#222 = APPROVAL_PERSON_ORGANIZATION ( #178, #206, #229 ) ;
#223 = AXIS2_PLACEMENT_3D ( 'NONE', #242, #219, #99 ) ;
#224 = CARTESIAN_POINT ( 'NONE',  ( 0.5750000000000039524, 0.0000000000000000000, 1.149999999999997469 ) ) ;
#225 = DIRECTION ( 'NONE',  ( 4.275831445896958607E-31, 1.000000000000000000, 1.224646799147353207E-16 ) ) ;
#226 = LOCAL_TIME ( 8, 14, 26.00000000000000000, #73 ) ;
#227 = VERTEX_POINT ( 'NONE', #3 ) ;
#228 = AXIS2_PLACEMENT_3D ( 'NONE', #221, #156, #208 ) ;
#229 = APPROVAL_ROLE ( '' ) ;
#230 = PERSON_AND_ORGANIZATION_ROLE ( 'classification_officer' ) ;
#231 = LOCAL_TIME ( 8, 14, 26.00000000000000000, #211 ) ;
#232 = AXIS2_PLACEMENT_3D ( 'NONE', #40, #82, #183 ) ;
#233 = APPROVAL_STATUS ( 'not_yet_approved' ) ;
#234 = ORIENTED_EDGE ( 'NONE', *, *, #31, .F. ) ;
#235 = ADVANCED_FACE ( 'NONE', ( #87 ), #41, .F. ) ;
#236 = ORIENTED_EDGE ( 'NONE', *, *, #177, .T. ) ;
#237 = CONICAL_SURFACE ( 'NONE', #96, 1.499999999999996225, 0.2617993877991427465 ) ;
#238 = EDGE_LOOP ( 'NONE', ( #181 ) ) ;
#239 = CARTESIAN_POINT ( 'NONE',  ( 5.822527271894858162E-15, 0.0000000000000000000, 1.667638090205028290 ) ) ;
#240 = PRODUCT_DEFINITION_SHAPE ( 'NONE', 'NONE',  #54 ) ;
#241 = ADVANCED_FACE ( 'NONE', ( #103, #119 ), #26, .T. ) ;
#242 = CARTESIAN_POINT ( 'NONE',  ( 1.326762908760390423E-13, -4.653657836759941941E-15, 38.00000000000000000 ) ) ;
#243 = PLANE ( 'NONE',  #120 ) ;
ENDSEC;
END-ISO-10303-21;
