ISO-10303-21;
HEADER;
FILE_DESCRIPTION (( 'STEP AP203' ),
    '1' );
FILE_NAME ('64369.step',
    '2021-11-10T07:14:25',
    ( '' ),
    ( '' ),
    'SwSTEP 2.0',
    'SolidWorks 2019',
    '' );
FILE_SCHEMA (( 'CONFIG_CONTROL_DESIGN' ));
ENDSEC;

DATA;
#1 = CC_DESIGN_APPROVAL ( #3, ( #164 ) ) ;
#2 = COORDINATED_UNIVERSAL_TIME_OFFSET ( 1, 0, .AHEAD. ) ;
#3 = APPROVAL ( #184, 'UNSPECIFIED' ) ;
#4 = SECURITY_CLASSIFICATION_LEVEL ( 'unclassified' ) ;
#5 = APPROVAL_STATUS ( 'not_yet_approved' ) ;
#6 = EDGE_LOOP ( 'NONE', ( #12 ) ) ;
#7 = DATE_TIME_ROLE ( 'creation_date' ) ;
#8 = ORIENTED_EDGE ( 'NONE', *, *, #151, .T. ) ;
#9 = EDGE_CURVE ( 'NONE', #42, #42, #85, .T. ) ;
#10 = PERSON ( 'UNSPECIFIED', 'UNSPECIFIED', 'UNSPECIFIED', ('UNSPECIFIED'), ('UNSPECIFIED'), ('UNSPECIFIED') ) ;
#11 = ORIENTED_EDGE ( 'NONE', *, *, #227, .F. ) ;
#12 = ORIENTED_EDGE ( 'NONE', *, *, #183, .T. ) ;
#13 = FACE_OUTER_BOUND ( 'NONE', #235, .T. ) ;
#14 = AXIS2_PLACEMENT_3D ( 'NONE', #102, #205, #104 ) ;
#15 = FACE_OUTER_BOUND ( 'NONE', #162, .T. ) ;
#16 = CARTESIAN_POINT ( 'NONE',  ( 1.326762908760390423E-13, -4.653657836759941941E-15, 38.00000000000000000 ) ) ;
#17 = ADVANCED_FACE ( 'NONE', ( #145, #195 ), #106, .T. ) ;
#18 = VERTEX_POINT ( 'NONE', #203 ) ;
#19 = AXIS2_PLACEMENT_3D ( 'NONE', #129, #36, #155 ) ;
#20 = DIRECTION ( 'NONE',  ( 3.491481338843133355E-15, -1.224646799147353207E-16, 1.000000000000000000 ) ) ;
#21 = CC_DESIGN_DATE_AND_TIME_ASSIGNMENT ( #69, #178, ( #164 ) ) ;
#22 = APPROVAL_ROLE ( '' ) ;
#23 = LOCAL_TIME ( 8, 14, 25.00000000000000000, #229 ) ;
#24 = PERSON_AND_ORGANIZATION ( #10, #165 ) ;
#25 = APPROVAL_DATE_TIME ( #68, #197 ) ;
#26 = LOCAL_TIME ( 8, 14, 25.00000000000000000, #2 ) ;
#27 = CIRCLE ( 'NONE', #190, 0.6181483474218602003 ) ;
#28 = APPROVAL_STATUS ( 'not_yet_approved' ) ;
#29 = CARTESIAN_POINT ( 'NONE',  ( 0.0000000000000000000, 0.0000000000000000000, 0.0000000000000000000 ) ) ;
#30 = APPLICATION_PROTOCOL_DEFINITION ( 'international standard', 'config_control_design', 1994, #90 ) ;
#31 = FACE_OUTER_BOUND ( 'NONE', #70, .T. ) ;
#32 = CLOSED_SHELL ( 'NONE', ( #17, #168, #191, #218, #40, #107 ) ) ;
#33 = PERSON_AND_ORGANIZATION ( #10, #165 ) ;
#34 = EDGE_LOOP ( 'NONE', ( #125 ) ) ;
#35 = CC_DESIGN_PERSON_AND_ORGANIZATION_ASSIGNMENT ( #206, #115, ( #80 ) ) ;
#36 = DIRECTION ( 'NONE',  ( 3.491481338843133355E-15, -1.224646799147353207E-16, 1.000000000000000000 ) ) ;
#37 = DIRECTION ( 'NONE',  ( -3.491481338843133355E-15, 1.224646799147353207E-16, -1.000000000000000000 ) ) ;
#38 =( NAMED_UNIT ( * ) SI_UNIT ( $, .STERADIAN. ) SOLID_ANGLE_UNIT ( ) );
#39 = AXIS2_PLACEMENT_3D ( 'NONE', #41, #110, #63 ) ;
#40 = ADVANCED_FACE ( 'NONE', ( #54, #31 ), #89, .T. ) ;
#41 = CARTESIAN_POINT ( 'NONE',  ( 1.326762908760390423E-13, -4.653657836759941941E-15, 38.00000000000000000 ) ) ;
#42 = VERTEX_POINT ( 'NONE', #239 ) ;
#43 = DIRECTION ( 'NONE',  ( 3.491481338843133355E-15, -0.0000000000000000000, 1.000000000000000000 ) ) ;
#44 = AXIS2_PLACEMENT_3D ( 'NONE', #16, #37, #243 ) ;
#45 = CARTESIAN_POINT ( 'NONE',  ( 1.500000000000013323, 0.0000000000000000000, 4.908753262365292969 ) ) ;
#46 = COORDINATED_UNIVERSAL_TIME_OFFSET ( 1, 0, .AHEAD. ) ;
#47 = DESIGN_CONTEXT ( 'detailed design', #90, 'design' ) ;
#48 = CARTESIAN_POINT ( 'NONE',  ( 1.316288464743861212E-13, 1.499999999999994005, 37.69999999999999574 ) ) ;
#49 = DATE_AND_TIME ( #143, #23 ) ;
#50 = CC_DESIGN_APPROVAL ( #197, ( #240 ) ) ;
#51 = ORIENTED_EDGE ( 'NONE', *, *, #174, .T. ) ;
#52 = APPLICATION_CONTEXT ( 'configuration controlled 3d designs of mechanical parts and assemblies' ) ;
#53 = APPROVAL_DATE_TIME ( #217, #3 ) ;
#54 = FACE_BOUND ( 'NONE', #222, .T. ) ;
#55 = AXIS2_PLACEMENT_3D ( 'NONE', #152, #242, #170 ) ;
#56 = FACE_OUTER_BOUND ( 'NONE', #34, .T. ) ;
#57 = DIRECTION ( 'NONE',  ( 0.0000000000000000000, 1.000000000000000000, 0.0000000000000000000 ) ) ;
#58 = PRODUCT ( '64369', '64369', '', ( #87 ) ) ;
#59 = ADVANCED_FACE ( 'NONE', ( #56 ), #199, .F. ) ;
#60 = DIRECTION ( 'NONE',  ( 3.491481338843133355E-15, -0.0000000000000000000, 1.000000000000000000 ) ) ;
#61 = APPROVAL_PERSON_ORGANIZATION ( #157, #119, #66 ) ;
#62 = FACE_OUTER_BOUND ( 'NONE', #91, .T. ) ;
#63 = DIRECTION ( 'NONE',  ( 0.0000000000000000000, 1.000000000000000000, 0.0000000000000000000 ) ) ;
#64 = CC_DESIGN_DATE_AND_TIME_ASSIGNMENT ( #49, #7, ( #240 ) ) ;
#65 = LOCAL_TIME ( 8, 14, 25.00000000000000000, #46 ) ;
#66 = APPROVAL_ROLE ( '' ) ;
#67 = PERSON_AND_ORGANIZATION ( #10, #165 ) ;
#68 = DATE_AND_TIME ( #233, #101 ) ;
#69 = DATE_AND_TIME ( #118, #65 ) ;
#70 = EDGE_LOOP ( 'NONE', ( #182 ) ) ;
#71 = ORIENTED_EDGE ( 'NONE', *, *, #99, .F. ) ;
#72 = ORIENTED_EDGE ( 'NONE', *, *, #99, .T. ) ;
#73 = TOROIDAL_SURFACE ( 'NONE', #55, 2.550000000000000266, 2.000000000000000000 ) ;
#74 = SHAPE_DEFINITION_REPRESENTATION ( #81, #241 ) ;
#75 = PLANE ( 'NONE',  #153 ) ;
#76 = FACE_BOUND ( 'NONE', #161, .T. ) ;
#77 = CARTESIAN_POINT ( 'NONE',  ( 3.840629472727444324E-15, 0.0000000000000000000, 1.099999999999999201 ) ) ;
#78 = CARTESIAN_POINT ( 'NONE',  ( 5.647953204952700705E-15, 0.0000000000000000000, 1.617638090205028245 ) ) ;
#79 = VERTEX_POINT ( 'NONE', #158 ) ;
#80 = PRODUCT_DEFINITION_FORMATION_WITH_SPECIFIED_SOURCE ( 'ANY', '', #58, .NOT_KNOWN. ) ;
#81 = PRODUCT_DEFINITION_SHAPE ( 'NONE', 'NONE',  #240 ) ;
#82 = EDGE_CURVE ( 'NONE', #134, #134, #156, .T. ) ;
#83 = PERSON_AND_ORGANIZATION ( #10, #165 ) ;
#84 = PERSON_AND_ORGANIZATION ( #10, #165 ) ;
#85 = CIRCLE ( 'NONE', #234, 0.5499999999999997113 ) ;
#86 = ORIENTED_EDGE ( 'NONE', *, *, #151, .F. ) ;
#87 = MECHANICAL_CONTEXT ( 'NONE', #52, 'mechanical' ) ;
#88 = ORIENTED_EDGE ( 'NONE', *, *, #82, .T. ) ;
#89 = CONICAL_SURFACE ( 'NONE', #220, 1.499999999999996225, 0.2617993877991426910 ) ;
#90 = APPLICATION_CONTEXT ( 'configuration controlled 3d designs of mechanical parts and assemblies' ) ;
#91 = EDGE_LOOP ( 'NONE', ( #71 ) ) ;
#92 = DIRECTION ( 'NONE',  ( -4.275831445896958607E-31, -1.000000000000000000, -1.224646799147353207E-16 ) ) ;
#93 = CIRCLE ( 'NONE', #204, 0.5500000000000001554 ) ;
#94 = CARTESIAN_POINT ( 'NONE',  ( 1.326762908760390423E-13, 8.998558695971069014E-33, 38.00000000000000000 ) ) ;
#95 = DIRECTION ( 'NONE',  ( -3.491481338843133355E-15, 1.224646799147353207E-16, -1.000000000000000000 ) ) ;
#96 = FACE_OUTER_BOUND ( 'NONE', #196, .T. ) ;
#97 = AXIS2_PLACEMENT_3D ( 'NONE', #180, #163, #219 ) ;
#98 = CARTESIAN_POINT ( 'NONE',  ( -1.786038389295302186E-30, 0.0000000000000000000, -5.115417256925931626E-16 ) ) ;
#99 = EDGE_CURVE ( 'NONE', #18, #18, #209, .T. ) ;
#100 = COORDINATED_UNIVERSAL_TIME_OFFSET ( 1, 0, .AHEAD. ) ;
#101 = LOCAL_TIME ( 8, 14, 25.00000000000000000, #100 ) ;
#102 = CARTESIAN_POINT ( 'NONE',  ( 0.0000000000000000000, 0.0000000000000000000, 0.0000000000000000000 ) ) ;
#103 = CARTESIAN_POINT ( 'NONE',  ( 0.6181483474218657514, 0.0000000000000000000, 1.617638090205026025 ) ) ;
#104 = DIRECTION ( 'NONE',  ( 1.000000000000000000, 0.0000000000000000000, 0.0000000000000000000 ) ) ;
#105 = EDGE_LOOP ( 'NONE', ( #121 ) ) ;
#106 = CYLINDRICAL_SURFACE ( 'NONE', #97, 1.499999999999996447 ) ;
#107 = ADVANCED_FACE ( 'NONE', ( #114 ), #189, .F. ) ;
#108 = AXIS2_PLACEMENT_3D ( 'NONE', #202, #166, #228 ) ;
#109 = ORIENTED_EDGE ( 'NONE', *, *, #9, .T. ) ;
#110 = DIRECTION ( 'NONE',  ( -3.491481338843133355E-15, 1.224646799147353207E-16, -1.000000000000000000 ) ) ;
#111 = CARTESIAN_POINT ( 'NONE',  ( 3.840629472727446691E-15, -1.590163186312077443E-16, 1.099999999999999867 ) ) ;
#112 = LOCAL_TIME ( 8, 14, 25.00000000000000000, #179 ) ;
#113 = DIRECTION ( 'NONE',  ( 3.491481338843133355E-15, -0.0000000000000000000, 1.000000000000000000 ) ) ;
#114 = FACE_OUTER_BOUND ( 'NONE', #123, .T. ) ;
#115 = PERSON_AND_ORGANIZATION_ROLE ( 'creator' ) ;
#116 = APPROVAL_PERSON_ORGANIZATION ( #84, #197, #22 ) ;
#117 = PRODUCT_RELATED_PRODUCT_CATEGORY ( 'detail', '', ( #58 ) ) ;
#118 = CALENDAR_DATE ( 2021, 10, 11 ) ;
#119 = APPROVAL ( #28, 'UNSPECIFIED' ) ;
#120 = VERTEX_POINT ( 'NONE', #103 ) ;
#121 = ORIENTED_EDGE ( 'NONE', *, *, #82, .F. ) ;
#122 = AXIS2_PLACEMENT_3D ( 'NONE', #167, #136, #185 ) ;
#123 = EDGE_LOOP ( 'NONE', ( #86 ) ) ;
#124 = ADVANCED_FACE ( 'NONE', ( #13, #62 ), #224, .T. ) ;
#125 = ORIENTED_EDGE ( 'NONE', *, *, #9, .F. ) ;
#126 = APPLICATION_PROTOCOL_DEFINITION ( 'international standard', 'config_control_design', 1994, #52 ) ;
#127 = CARTESIAN_POINT ( 'NONE',  ( 1.713882041253378910E-14, 0.0000000000000000000, 4.908753262365298298 ) ) ;
#128 = ORIENTED_EDGE ( 'NONE', *, *, #227, .T. ) ;
#129 = CARTESIAN_POINT ( 'NONE',  ( -6.413803915257457113E-31, 2.249659577954772199E-32, -1.836986451539393076E-16 ) ) ;
#130 = CC_DESIGN_PERSON_AND_ORGANIZATION_ASSIGNMENT ( #83, #230, ( #164 ) ) ;
#131 = MANIFOLD_SOLID_BREP ( 'Corps-Déplacer/Copier1[1]', #32 ) ;
#132 = PERSON_AND_ORGANIZATION_ROLE ( 'design_owner' ) ;
#133 = FACE_OUTER_BOUND ( 'NONE', #105, .T. ) ;
#134 = VERTEX_POINT ( 'NONE', #188 ) ;
#135 = CC_DESIGN_PERSON_AND_ORGANIZATION_ASSIGNMENT ( #33, #132, ( #58 ) ) ;
#136 = DIRECTION ( 'NONE',  ( 3.491481338843133355E-15, -1.224646799147353207E-16, 1.000000000000000000 ) ) ;
#137 = DIRECTION ( 'NONE',  ( 1.000000000000000000, 0.0000000000000000000, -3.548298019043467945E-15 ) ) ;
#138 = CLOSED_SHELL ( 'NONE', ( #144, #124, #59 ) ) ;
#139 = VERTEX_POINT ( 'NONE', #45 ) ;
#140 = APPROVAL_DATE_TIME ( #210, #119 ) ;
#141 = CONICAL_SURFACE ( 'NONE', #44, 1.199999999999998845, 0.7853981633974450594 ) ;
#142 =( LENGTH_UNIT ( ) NAMED_UNIT ( * ) SI_UNIT ( .MILLI., .METRE. ) );
#143 = CALENDAR_DATE ( 2021, 10, 11 ) ;
#144 = ADVANCED_FACE ( 'NONE', ( #15 ), #75, .T. ) ;
#145 = FACE_OUTER_BOUND ( 'NONE', #6, .T. ) ;
#146 = EDGE_LOOP ( 'NONE', ( #148 ) ) ;
#147 = AXIS2_PLACEMENT_3D ( 'NONE', #149, #43, #137 ) ;
#148 = ORIENTED_EDGE ( 'NONE', *, *, #183, .F. ) ;
#149 = CARTESIAN_POINT ( 'NONE',  ( 3.840629472727444324E-15, 0.0000000000000000000, 1.099999999999999201 ) ) ;
#150 = FACE_OUTER_BOUND ( 'NONE', #194, .T. ) ;
#151 = EDGE_CURVE ( 'NONE', #79, #79, #93, .T. ) ;
#152 = CARTESIAN_POINT ( 'NONE',  ( 3.840629472727445113E-15, 0.0000000000000000000, 1.099999999999999423 ) ) ;
#153 = AXIS2_PLACEMENT_3D ( 'NONE', #111, #20, #92 ) ;
#154 = DIRECTION ( 'NONE',  ( 1.000000000000000000, 0.0000000000000000000, -3.469446951953622866E-15 ) ) ;
#155 = DIRECTION ( 'NONE',  ( -4.275831445896958607E-31, -1.000000000000000000, -1.224646799147353207E-16 ) ) ;
#156 = CIRCLE ( 'NONE', #39, 1.199999999999998845 ) ;
#157 = PERSON_AND_ORGANIZATION ( #10, #165 ) ;
#158 = CARTESIAN_POINT ( 'NONE',  ( 0.5500000000000039302, 0.0000000000000000000, 1.099999999999997202 ) ) ;
#159 = PERSON_AND_ORGANIZATION ( #10, #165 ) ;
#160 = CC_DESIGN_PERSON_AND_ORGANIZATION_ASSIGNMENT ( #67, #212, ( #240 ) ) ;
#161 = EDGE_LOOP ( 'NONE', ( #88 ) ) ;
#162 = EDGE_LOOP ( 'NONE', ( #72 ) ) ;
#163 = DIRECTION ( 'NONE',  ( -3.491481338843133355E-15, 1.224646799147353207E-16, -1.000000000000000000 ) ) ;
#164 = SECURITY_CLASSIFICATION ( '', '', #4 ) ;
#165 = ORGANIZATION ( 'UNSPECIFIED', 'UNSPECIFIED', '' ) ;
#166 = DIRECTION ( 'NONE',  ( 3.491481338843133355E-15, -0.0000000000000000000, 1.000000000000000000 ) ) ;
#167 = CARTESIAN_POINT ( 'NONE',  ( 3.840629472727446691E-15, -1.590163186312077443E-16, 1.099999999999999867 ) ) ;
#168 = ADVANCED_FACE ( 'NONE', ( #201, #76 ), #141, .T. ) ;
#169 = DIRECTION ( 'NONE',  ( 1.000000000000000000, 0.0000000000000000000, -3.507902842440447655E-15 ) ) ;
#170 = DIRECTION ( 'NONE',  ( 1.000000000000000000, 0.0000000000000000000, -3.491481338843133750E-15 ) ) ;
#171 = CIRCLE ( 'NONE', #231, 1.499999999999998446 ) ;
#172 = DIRECTION ( 'NONE',  ( 1.000000000000000000, 0.0000000000000000000, -3.491481338843133750E-15 ) ) ;
#173 = CC_DESIGN_APPROVAL ( #119, ( #80 ) ) ;
#174 = EDGE_CURVE ( 'NONE', #139, #139, #181, .T. ) ;
#175 = CALENDAR_DATE ( 2021, 10, 11 ) ;
#176 = AXIS2_PLACEMENT_3D ( 'NONE', #94, #95, #200 ) ;
#177 = DIRECTION ( 'NONE',  ( 3.491481338843133355E-15, -0.0000000000000000000, 1.000000000000000000 ) ) ;
#178 = DATE_TIME_ROLE ( 'classification_date' ) ;
#179 = COORDINATED_UNIVERSAL_TIME_OFFSET ( 1, 0, .AHEAD. ) ;
#180 = CARTESIAN_POINT ( 'NONE',  ( 0.0000000000000000000, 0.0000000000000000000, 0.0000000000000000000 ) ) ;
#181 = CIRCLE ( 'NONE', #108, 1.499999999999996225 ) ;
#182 = ORIENTED_EDGE ( 'NONE', *, *, #174, .F. ) ;
#183 = EDGE_CURVE ( 'NONE', #208, #208, #171, .T. ) ;
#184 = APPROVAL_STATUS ( 'not_yet_approved' ) ;
#185 = DIRECTION ( 'NONE',  ( -4.275831445896958607E-31, -1.000000000000000000, -1.224646799147353207E-16 ) ) ;
#186 = DIRECTION ( 'NONE',  ( 3.491481338843133355E-15, -0.0000000000000000000, 1.000000000000000000 ) ) ;
#187 = DIRECTION ( 'NONE',  ( -3.491481338843133355E-15, 1.224646799147353207E-16, -1.000000000000000000 ) ) ;
#188 = CARTESIAN_POINT ( 'NONE',  ( 1.326762908760390423E-13, 1.199999999999994182, 38.00000000000000000 ) ) ;
#189 = PLANE ( 'NONE',  #122 ) ;
#190 = AXIS2_PLACEMENT_3D ( 'NONE', #78, #60, #169 ) ;
#191 = ADVANCED_FACE ( 'NONE', ( #133 ), #226, .F. ) ;
#192 = PERSON_AND_ORGANIZATION_ROLE ( 'design_supplier' ) ;
#193 =( NAMED_UNIT ( * ) PLANE_ANGLE_UNIT ( ) SI_UNIT ( $, .RADIAN. ) );
#194 = EDGE_LOOP ( 'NONE', ( #11 ) ) ;
#195 = FACE_OUTER_BOUND ( 'NONE', #213, .T. ) ;
#196 = EDGE_LOOP ( 'NONE', ( #8 ) ) ;
#197 = APPROVAL ( #5, 'UNSPECIFIED' ) ;
#198 =( GEOMETRIC_REPRESENTATION_CONTEXT ( 3 ) GLOBAL_UNCERTAINTY_ASSIGNED_CONTEXT ( ( #207 ) ) GLOBAL_UNIT_ASSIGNED_CONTEXT ( ( #142, #193, #38 ) ) REPRESENTATION_CONTEXT ( 'NONE', 'WORKASPACE' ) );
#199 = PLANE ( 'NONE',  #19 ) ;
#200 = DIRECTION ( 'NONE',  ( 4.275831445896958607E-31, 1.000000000000000000, 1.224646799147353207E-16 ) ) ;
#201 = FACE_OUTER_BOUND ( 'NONE', #146, .T. ) ;
#202 = CARTESIAN_POINT ( 'NONE',  ( 1.713882041253378910E-14, 0.0000000000000000000, 4.908753262365298298 ) ) ;
#203 = CARTESIAN_POINT ( 'NONE',  ( 0.5500000000000039302, 0.0000000000000000000, 1.099999999999997202 ) ) ;
#204 = AXIS2_PLACEMENT_3D ( 'NONE', #77, #237, #238 ) ;
#205 = DIRECTION ( 'NONE',  ( 0.0000000000000000000, 0.0000000000000000000, 1.000000000000000000 ) ) ;
#206 = PERSON_AND_ORGANIZATION ( #10, #165 ) ;
#207 = UNCERTAINTY_MEASURE_WITH_UNIT (LENGTH_MEASURE( 1.000000000000000082E-05 ), #142, 'distance_accuracy_value', 'NONE');
#208 = VERTEX_POINT ( 'NONE', #48 ) ;
#209 = CIRCLE ( 'NONE', #147, 0.5500000000000001554 ) ;
#210 = DATE_AND_TIME ( #175, #26 ) ;
#211 = MANIFOLD_SOLID_BREP ( 'Corps-Déplacer/Copier1[2]', #138 ) ;
#212 = PERSON_AND_ORGANIZATION_ROLE ( 'creator' ) ;
#213 = EDGE_LOOP ( 'NONE', ( #51 ) ) ;
#214 = APPROVAL_PERSON_ORGANIZATION ( #24, #3, #215 ) ;
#215 = APPROVAL_ROLE ( '' ) ;
#216 = DIRECTION ( 'NONE',  ( 1.000000000000000000, 0.0000000000000000000, -3.491481338843133750E-15 ) ) ;
#217 = DATE_AND_TIME ( #236, #112 ) ;
#218 = ADVANCED_FACE ( 'NONE', ( #96, #150 ), #73, .F. ) ;
#219 = DIRECTION ( 'NONE',  ( 4.275831445896958607E-31, 1.000000000000000000, 1.224646799147352961E-16 ) ) ;
#220 = AXIS2_PLACEMENT_3D ( 'NONE', #127, #186, #154 ) ;
#221 = CC_DESIGN_SECURITY_CLASSIFICATION ( #164, ( #80 ) ) ;
#222 = EDGE_LOOP ( 'NONE', ( #128 ) ) ;
#223 = CARTESIAN_POINT ( 'NONE',  ( 1.316288464743861212E-13, -4.616918432785521081E-15, 37.69999999999999574 ) ) ;
#224 = CYLINDRICAL_SURFACE ( 'NONE', #225, 0.5499999999999999334 ) ;
#225 = AXIS2_PLACEMENT_3D ( 'NONE', #98, #113, #172 ) ;
#226 = PLANE ( 'NONE',  #176 ) ;
#227 = EDGE_CURVE ( 'NONE', #120, #120, #27, .T. ) ;
#228 = DIRECTION ( 'NONE',  ( 1.000000000000000000, 0.0000000000000000000, -3.469446951953622866E-15 ) ) ;
#229 = COORDINATED_UNIVERSAL_TIME_OFFSET ( 1, 0, .AHEAD. ) ;
#230 = PERSON_AND_ORGANIZATION_ROLE ( 'classification_officer' ) ;
#231 = AXIS2_PLACEMENT_3D ( 'NONE', #223, #187, #57 ) ;
#232 = CC_DESIGN_PERSON_AND_ORGANIZATION_ASSIGNMENT ( #159, #192, ( #80 ) ) ;
#233 = CALENDAR_DATE ( 2021, 10, 11 ) ;
#234 = AXIS2_PLACEMENT_3D ( 'NONE', #29, #177, #216 ) ;
#235 = EDGE_LOOP ( 'NONE', ( #109 ) ) ;
#236 = CALENDAR_DATE ( 2021, 10, 11 ) ;
#237 = DIRECTION ( 'NONE',  ( 3.491481338843133355E-15, -0.0000000000000000000, 1.000000000000000000 ) ) ;
#238 = DIRECTION ( 'NONE',  ( 1.000000000000000000, 0.0000000000000000000, -3.548298019043467945E-15 ) ) ;
#239 = CARTESIAN_POINT ( 'NONE',  ( 0.5499999999999997113, 0.0000000000000000000, -1.920314736363722557E-15 ) ) ;
#240 = PRODUCT_DEFINITION ( 'UNKNOWN', '', #80, #47 ) ;
#241 = ADVANCED_BREP_SHAPE_REPRESENTATION ( '64369', ( #131, #211, #14 ), #198 ) ;
#242 = DIRECTION ( 'NONE',  ( 3.491481338843133355E-15, -0.0000000000000000000, 1.000000000000000000 ) ) ;
#243 = DIRECTION ( 'NONE',  ( 0.0000000000000000000, 1.000000000000000000, 0.0000000000000000000 ) ) ;
ENDSEC;
END-ISO-10303-21;
