ISO-10303-21;
HEADER;
FILE_DESCRIPTION (( 'STEP AP203' ),
    '1' );
FILE_NAME ('64368.step',
    '2021-11-10T07:14:25',
    ( '' ),
    ( '' ),
    'SwSTEP 2.0',
    'SolidWorks 2019',
    '' );
FILE_SCHEMA (( 'CONFIG_CONTROL_DESIGN' ));
ENDSEC;

DATA;
#1 = VERTEX_POINT ( 'NONE', #200 ) ;
#2 = CARTESIAN_POINT ( 'NONE',  ( 3.666055405785290812E-15, -1.517883041479710645E-16, 1.050000000000000044 ) ) ;
#3 = CARTESIAN_POINT ( 'NONE',  ( 0.5931483474218648411, 0.0000000000000000000, 1.567638090205026202 ) ) ;
#4 = PRODUCT_DEFINITION_FORMATION_WITH_SPECIFIED_SOURCE ( 'ANY', '', #109, .NOT_KNOWN. ) ;
#5 = CALENDAR_DATE ( 2021, 10, 11 ) ;
#6 = PERSON_AND_ORGANIZATION_ROLE ( 'creator' ) ;
#7 = APPROVAL_ROLE ( '' ) ;
#8 = CIRCLE ( 'NONE', #52, 0.5249999999999999112 ) ;
#9 = CALENDAR_DATE ( 2021, 10, 11 ) ;
#10 = AXIS2_PLACEMENT_3D ( 'NONE', #65, #133, #46 ) ;
#11 = PLANE ( 'NONE',  #79 ) ;
#12 = FACE_OUTER_BOUND ( 'NONE', #123, .T. ) ;
#13 = FACE_OUTER_BOUND ( 'NONE', #213, .T. ) ;
#14 = ADVANCED_FACE ( 'NONE', ( #56, #124 ), #110, .T. ) ;
#15 = DIRECTION ( 'NONE',  ( 4.275831445896958607E-31, 1.000000000000000000, 1.224646799147352961E-16 ) ) ;
#16 = CARTESIAN_POINT ( 'NONE',  ( 5.473379138010544826E-15, 0.0000000000000000000, 1.567638090205028423 ) ) ;
#17 = EDGE_CURVE ( 'NONE', #64, #64, #235, .T. ) ;
#18 = DIRECTION ( 'NONE',  ( 1.000000000000000000, 0.0000000000000000000, -3.491481338843133355E-15 ) ) ;
#19 = CARTESIAN_POINT ( 'NONE',  ( 3.666055405785288445E-15, 0.0000000000000000000, 1.049999999999999600 ) ) ;
#20 = LOCAL_TIME ( 8, 14, 25.00000000000000000, #102 ) ;
#21 = PLANE ( 'NONE',  #59 ) ;
#22 = DIRECTION ( 'NONE',  ( 0.0000000000000000000, 1.000000000000000000, 0.0000000000000000000 ) ) ;
#23 = CC_DESIGN_PERSON_AND_ORGANIZATION_ASSIGNMENT ( #88, #6, ( #4 ) ) ;
#24 = CARTESIAN_POINT ( 'NONE',  ( 0.5250000000000035749, 0.0000000000000000000, 1.049999999999997824 ) ) ;
#25 = LOCAL_TIME ( 8, 14, 25.00000000000000000, #101 ) ;
#26 = DIRECTION ( 'NONE',  ( 0.0000000000000000000, 0.0000000000000000000, 1.000000000000000000 ) ) ;
#27 = EDGE_CURVE ( 'NONE', #1, #1, #234, .T. ) ;
#28 = PERSON_AND_ORGANIZATION_ROLE ( 'creator' ) ;
#29 = DATE_TIME_ROLE ( 'classification_date' ) ;
#30 = APPROVAL_STATUS ( 'not_yet_approved' ) ;
#31 = CALENDAR_DATE ( 2021, 10, 11 ) ;
#32 = AXIS2_PLACEMENT_3D ( 'NONE', #16, #160, #77 ) ;
#33 = ORIENTED_EDGE ( 'NONE', *, *, #240, .F. ) ;
#34 = CC_DESIGN_DATE_AND_TIME_ASSIGNMENT ( #188, #29, ( #204 ) ) ;
#35 = EDGE_LOOP ( 'NONE', ( #178 ) ) ;
#36 = ORIENTED_EDGE ( 'NONE', *, *, #17, .T. ) ;
#37 = CIRCLE ( 'NONE', #187, 1.499999999999998446 ) ;
#38 = DIRECTION ( 'NONE',  ( 1.000000000000000000, 0.0000000000000000000, -3.469446951953622866E-15 ) ) ;
#39 =( LENGTH_UNIT ( ) NAMED_UNIT ( * ) SI_UNIT ( .MILLI., .METRE. ) );
#40 = MANIFOLD_SOLID_BREP ( 'Corps-Déplacer/Copier1[2]', #63 ) ;
#41 = CARTESIAN_POINT ( 'NONE',  ( -1.786038389295302186E-30, 0.0000000000000000000, -5.115417256925931626E-16 ) ) ;
#42 = CONICAL_SURFACE ( 'NONE', #156, 1.499999999999996225, 0.2617993877991428020 ) ;
#43 = CC_DESIGN_DATE_AND_TIME_ASSIGNMENT ( #51, #167, ( #81 ) ) ;
#44 = FACE_OUTER_BOUND ( 'NONE', #215, .T. ) ;
#45 = UNCERTAINTY_MEASURE_WITH_UNIT (LENGTH_MEASURE( 1.000000000000000082E-05 ), #39, 'distance_accuracy_value', 'NONE');
#46 = DIRECTION ( 'NONE',  ( -4.275831445896958607E-31, -1.000000000000000000, -1.224646799147353207E-16 ) ) ;
#47 = DIRECTION ( 'NONE',  ( 3.491481338843133355E-15, -1.224646799147353207E-16, 1.000000000000000000 ) ) ;
#48 = PERSON_AND_ORGANIZATION ( #57, #191 ) ;
#49 = PERSON_AND_ORGANIZATION ( #57, #191 ) ;
#50 = DATE_AND_TIME ( #67, #159 ) ;
#51 = DATE_AND_TIME ( #31, #25 ) ;
#52 = AXIS2_PLACEMENT_3D ( 'NONE', #19, #220, #161 ) ;
#53 = EDGE_LOOP ( 'NONE', ( #158 ) ) ;
#54 = CLOSED_SHELL ( 'NONE', ( #14, #201, #130, #242, #119, #141 ) ) ;
#55 = DIRECTION ( 'NONE',  ( 4.275831445896958607E-31, 1.000000000000000000, 1.224646799147353207E-16 ) ) ;
#56 = FACE_OUTER_BOUND ( 'NONE', #129, .T. ) ;
#57 = PERSON ( 'UNSPECIFIED', 'UNSPECIFIED', 'UNSPECIFIED', ('UNSPECIFIED'), ('UNSPECIFIED'), ('UNSPECIFIED') ) ;
#58 = FACE_BOUND ( 'NONE', #94, .T. ) ;
#59 = AXIS2_PLACEMENT_3D ( 'NONE', #205, #47, #221 ) ;
#60 = DIRECTION ( 'NONE',  ( 3.491481338843133355E-15, -1.224646799147353207E-16, 1.000000000000000000 ) ) ;
#61 = FACE_OUTER_BOUND ( 'NONE', #70, .T. ) ;
#62 = DIRECTION ( 'NONE',  ( -3.491481338843133355E-15, 1.224646799147353207E-16, -1.000000000000000000 ) ) ;
#63 = CLOSED_SHELL ( 'NONE', ( #165, #170, #139 ) ) ;
#64 = VERTEX_POINT ( 'NONE', #3 ) ;
#65 = CARTESIAN_POINT ( 'NONE',  ( -6.413803915257457113E-31, 2.249659577954772199E-32, -1.836986451539393076E-16 ) ) ;
#66 = COORDINATED_UNIVERSAL_TIME_OFFSET ( 1, 0, .AHEAD. ) ;
#67 = CALENDAR_DATE ( 2021, 10, 11 ) ;
#68 = APPROVAL_ROLE ( '' ) ;
#69 = PERSON_AND_ORGANIZATION ( #57, #191 ) ;
#70 = EDGE_LOOP ( 'NONE', ( #143 ) ) ;
#71 = PRODUCT_RELATED_PRODUCT_CATEGORY ( 'detail', '', ( #109 ) ) ;
#72 = CARTESIAN_POINT ( 'NONE',  ( 1.729000598934767378E-14, 0.0000000000000000000, 4.952054532554523547 ) ) ;
#73 = APPLICATION_CONTEXT ( 'configuration controlled 3d designs of mechanical parts and assemblies' ) ;
#74 = AXIS2_PLACEMENT_3D ( 'NONE', #41, #185, #162 ) ;
#75 = LOCAL_TIME ( 8, 14, 25.00000000000000000, #66 ) ;
#76 = ORIENTED_EDGE ( 'NONE', *, *, #27, .F. ) ;
#77 = DIRECTION ( 'NONE',  ( 1.000000000000000000, 0.0000000000000000000, -3.655753833583210934E-15 ) ) ;
#78 = DIRECTION ( 'NONE',  ( 1.000000000000000000, 0.0000000000000000000, -3.491481338843133355E-15 ) ) ;
#79 = AXIS2_PLACEMENT_3D ( 'NONE', #157, #93, #55 ) ;
#80 = PLANE ( 'NONE',  #122 ) ;
#81 = PRODUCT_DEFINITION ( 'UNKNOWN', '', #4, #184 ) ;
#82 = PLANE ( 'NONE',  #10 ) ;
#83 = ADVANCED_BREP_SHAPE_REPRESENTATION ( '64368', ( #196, #40, #194 ), #177 ) ;
#84 = CARTESIAN_POINT ( 'NONE',  ( 3.666055405785289234E-15, 0.0000000000000000000, 1.049999999999999822 ) ) ;
#85 = CONICAL_SURFACE ( 'NONE', #128, 1.199999999999998845, 0.7853981633974450594 ) ;
#86 = CC_DESIGN_PERSON_AND_ORGANIZATION_ASSIGNMENT ( #48, #90, ( #109 ) ) ;
#87 = CARTESIAN_POINT ( 'NONE',  ( 1.316288464743861212E-13, 1.499999999999994005, 37.69999999999999574 ) ) ;
#88 = PERSON_AND_ORGANIZATION ( #57, #191 ) ;
#89 = COORDINATED_UNIVERSAL_TIME_OFFSET ( 1, 0, .AHEAD. ) ;
#90 = PERSON_AND_ORGANIZATION_ROLE ( 'design_owner' ) ;
#91 = APPROVAL_DATE_TIME ( #231, #190 ) ;
#92 = AXIS2_PLACEMENT_3D ( 'NONE', #84, #150, #78 ) ;
#93 = DIRECTION ( 'NONE',  ( -3.491481338843133355E-15, 1.224646799147353207E-16, -1.000000000000000000 ) ) ;
#94 = EDGE_LOOP ( 'NONE', ( #36 ) ) ;
#95 = CARTESIAN_POINT ( 'NONE',  ( 0.5249999999999999112, 0.0000000000000000000, -1.833027702892644617E-15 ) ) ;
#96 = FACE_BOUND ( 'NONE', #35, .T. ) ;
#97 = APPROVAL_PERSON_ORGANIZATION ( #211, #219, #68 ) ;
#98 = DIRECTION ( 'NONE',  ( 1.000000000000000000, 0.0000000000000000000, -3.469446951953622866E-15 ) ) ;
#99 = FACE_OUTER_BOUND ( 'NONE', #126, .T. ) ;
#100 = VERTEX_POINT ( 'NONE', #95 ) ;
#101 = COORDINATED_UNIVERSAL_TIME_OFFSET ( 1, 0, .AHEAD. ) ;
#102 = COORDINATED_UNIVERSAL_TIME_OFFSET ( 1, 0, .AHEAD. ) ;
#103 = PERSON_AND_ORGANIZATION_ROLE ( 'design_supplier' ) ;
#104 = APPROVAL ( #168, 'UNSPECIFIED' ) ;
#105 = CIRCLE ( 'NONE', #223, 0.5249999999999999112 ) ;
#106 = APPROVAL_PERSON_ORGANIZATION ( #69, #104, #7 ) ;
#107 = SHAPE_DEFINITION_REPRESENTATION ( #230, #83 ) ;
#108 = CC_DESIGN_PERSON_AND_ORGANIZATION_ASSIGNMENT ( #155, #103, ( #4 ) ) ;
#109 = PRODUCT ( '64368', '64368', '', ( #227 ) ) ;
#110 = CYLINDRICAL_SURFACE ( 'NONE', #203, 1.499999999999996447 ) ;
#111 = EDGE_LOOP ( 'NONE', ( #112 ) ) ;
#112 = ORIENTED_EDGE ( 'NONE', *, *, #17, .F. ) ;
#113 = ORIENTED_EDGE ( 'NONE', *, *, #154, .T. ) ;
#114 = CARTESIAN_POINT ( 'NONE',  ( 1.729000598934767378E-14, 0.0000000000000000000, 4.952054532554523547 ) ) ;
#115 = FACE_OUTER_BOUND ( 'NONE', #144, .T. ) ;
#116 = VERTEX_POINT ( 'NONE', #24 ) ;
#117 = COORDINATED_UNIVERSAL_TIME_OFFSET ( 1, 0, .AHEAD. ) ;
#118 = APPROVAL_ROLE ( '' ) ;
#119 = ADVANCED_FACE ( 'NONE', ( #58, #216 ), #42, .T. ) ;
#120 = CALENDAR_DATE ( 2021, 10, 11 ) ;
#121 = APPROVAL_DATE_TIME ( #50, #104 ) ;
#122 = AXIS2_PLACEMENT_3D ( 'NONE', #2, #60, #148 ) ;
#123 = EDGE_LOOP ( 'NONE', ( #76 ) ) ;
#124 = FACE_OUTER_BOUND ( 'NONE', #125, .T. ) ;
#125 = EDGE_LOOP ( 'NONE', ( #214 ) ) ;
#126 = EDGE_LOOP ( 'NONE', ( #241 ) ) ;
#127 = CIRCLE ( 'NONE', #198, 1.499999999999996225 ) ;
#128 = AXIS2_PLACEMENT_3D ( 'NONE', #135, #131, #22 ) ;
#129 = EDGE_LOOP ( 'NONE', ( #113 ) ) ;
#130 = ADVANCED_FACE ( 'NONE', ( #12 ), #11, .F. ) ;
#131 = DIRECTION ( 'NONE',  ( -3.491481338843133355E-15, 1.224646799147353207E-16, -1.000000000000000000 ) ) ;
#132 = FACE_OUTER_BOUND ( 'NONE', #53, .T. ) ;
#133 = DIRECTION ( 'NONE',  ( 3.491481338843133355E-15, -1.224646799147353207E-16, 1.000000000000000000 ) ) ;
#134 = VERTEX_POINT ( 'NONE', #87 ) ;
#135 = CARTESIAN_POINT ( 'NONE',  ( 1.326762908760390423E-13, -4.653657836759941941E-15, 38.00000000000000000 ) ) ;
#136 = CIRCLE ( 'NONE', #228, 0.5249999999999999112 ) ;
#137 = CC_DESIGN_APPROVAL ( #190, ( #4 ) ) ;
#138 =( NAMED_UNIT ( * ) SI_UNIT ( $, .STERADIAN. ) SOLID_ANGLE_UNIT ( ) );
#139 = ADVANCED_FACE ( 'NONE', ( #13 ), #82, .F. ) ;
#140 = ORIENTED_EDGE ( 'NONE', *, *, #222, .F. ) ;
#141 = ADVANCED_FACE ( 'NONE', ( #225 ), #21, .F. ) ;
#142 = CC_DESIGN_APPROVAL ( #104, ( #204 ) ) ;
#143 = ORIENTED_EDGE ( 'NONE', *, *, #154, .F. ) ;
#144 = EDGE_LOOP ( 'NONE', ( #195 ) ) ;
#145 = DIRECTION ( 'NONE',  ( -3.491481338843133355E-15, 1.224646799147353207E-16, -1.000000000000000000 ) ) ;
#146 = APPLICATION_CONTEXT ( 'configuration controlled 3d designs of mechanical parts and assemblies' ) ;
#147 = CARTESIAN_POINT ( 'NONE',  ( 1.316288464743861212E-13, -4.616918432785521081E-15, 37.69999999999999574 ) ) ;
#148 = DIRECTION ( 'NONE',  ( -4.275831445896958607E-31, -1.000000000000000000, -1.224646799147353207E-16 ) ) ;
#149 = DIRECTION ( 'NONE',  ( 3.491481338843133355E-15, -0.0000000000000000000, 1.000000000000000000 ) ) ;
#150 = DIRECTION ( 'NONE',  ( 3.491481338843133355E-15, -0.0000000000000000000, 1.000000000000000000 ) ) ;
#151 = AXIS2_PLACEMENT_3D ( 'NONE', #238, #145, #173 ) ;
#152 = VERTEX_POINT ( 'NONE', #164 ) ;
#153 = DATE_AND_TIME ( #9, #210 ) ;
#154 = EDGE_CURVE ( 'NONE', #134, #134, #37, .T. ) ;
#155 = PERSON_AND_ORGANIZATION ( #57, #191 ) ;
#156 = AXIS2_PLACEMENT_3D ( 'NONE', #72, #174, #38 ) ;
#157 = CARTESIAN_POINT ( 'NONE',  ( 1.326762908760390423E-13, 8.998558695971069014E-33, 38.00000000000000000 ) ) ;
#158 = ORIENTED_EDGE ( 'NONE', *, *, #222, .T. ) ;
#159 = LOCAL_TIME ( 8, 14, 25.00000000000000000, #89 ) ;
#160 = DIRECTION ( 'NONE',  ( 3.491481338843133355E-15, -0.0000000000000000000, 1.000000000000000000 ) ) ;
#161 = DIRECTION ( 'NONE',  ( 1.000000000000000000, 0.0000000000000000000, -3.304235192336775906E-15 ) ) ;
#162 = DIRECTION ( 'NONE',  ( 1.000000000000000000, 0.0000000000000000000, -3.491481338843133355E-15 ) ) ;
#163 = FACE_OUTER_BOUND ( 'NONE', #111, .T. ) ;
#164 = CARTESIAN_POINT ( 'NONE',  ( 1.500000000000013545, 0.0000000000000000000, 4.952054532554519106 ) ) ;
#165 = ADVANCED_FACE ( 'NONE', ( #115 ), #80, .T. ) ;
#166 = PERSON_AND_ORGANIZATION ( #57, #191 ) ;
#167 = DATE_TIME_ROLE ( 'creation_date' ) ;
#168 = APPROVAL_STATUS ( 'not_yet_approved' ) ;
#169 = SECURITY_CLASSIFICATION_LEVEL ( 'unclassified' ) ;
#170 = ADVANCED_FACE ( 'NONE', ( #132, #44 ), #179, .T. ) ;
#171 = APPLICATION_PROTOCOL_DEFINITION ( 'international standard', 'config_control_design', 1994, #73 ) ;
#172 = CC_DESIGN_APPROVAL ( #219, ( #81 ) ) ;
#173 = DIRECTION ( 'NONE',  ( 0.0000000000000000000, 1.000000000000000000, 0.0000000000000000000 ) ) ;
#174 = DIRECTION ( 'NONE',  ( 3.491481338843133355E-15, -0.0000000000000000000, 1.000000000000000000 ) ) ;
#175 = CARTESIAN_POINT ( 'NONE',  ( 0.0000000000000000000, 0.0000000000000000000, 0.0000000000000000000 ) ) ;
#176 = EDGE_CURVE ( 'NONE', #243, #243, #105, .T. ) ;
#177 =( GEOMETRIC_REPRESENTATION_CONTEXT ( 3 ) GLOBAL_UNCERTAINTY_ASSIGNED_CONTEXT ( ( #45 ) ) GLOBAL_UNIT_ASSIGNED_CONTEXT ( ( #39, #189, #138 ) ) REPRESENTATION_CONTEXT ( 'NONE', 'WORKASPACE' ) );
#178 = ORIENTED_EDGE ( 'NONE', *, *, #27, .T. ) ;
#179 = CYLINDRICAL_SURFACE ( 'NONE', #74, 0.5249999999999999112 ) ;
#180 = CARTESIAN_POINT ( 'NONE',  ( 3.666055405785288445E-15, 0.0000000000000000000, 1.049999999999999600 ) ) ;
#181 = EDGE_CURVE ( 'NONE', #116, #116, #8, .T. ) ;
#182 = DIRECTION ( 'NONE',  ( 3.491481338843133355E-15, -0.0000000000000000000, 1.000000000000000000 ) ) ;
#183 = DIRECTION ( 'NONE',  ( 3.491481338843133355E-15, -0.0000000000000000000, 1.000000000000000000 ) ) ;
#184 = DESIGN_CONTEXT ( 'detailed design', #73, 'design' ) ;
#185 = DIRECTION ( 'NONE',  ( 3.491481338843133355E-15, -0.0000000000000000000, 1.000000000000000000 ) ) ;
#186 = APPLICATION_PROTOCOL_DEFINITION ( 'international standard', 'config_control_design', 1994, #146 ) ;
#187 = AXIS2_PLACEMENT_3D ( 'NONE', #147, #62, #224 ) ;
#188 = DATE_AND_TIME ( #120, #75 ) ;
#189 =( NAMED_UNIT ( * ) PLANE_ANGLE_UNIT ( ) SI_UNIT ( $, .RADIAN. ) );
#190 = APPROVAL ( #208, 'UNSPECIFIED' ) ;
#191 = ORGANIZATION ( 'UNSPECIFIED', 'UNSPECIFIED', '' ) ;
#192 = DIRECTION ( 'NONE',  ( 1.000000000000000000, 0.0000000000000000000, 0.0000000000000000000 ) ) ;
#193 = ORIENTED_EDGE ( 'NONE', *, *, #176, .F. ) ;
#194 = AXIS2_PLACEMENT_3D ( 'NONE', #232, #26, #192 ) ;
#195 = ORIENTED_EDGE ( 'NONE', *, *, #176, .T. ) ;
#196 = MANIFOLD_SOLID_BREP ( 'Corps-Déplacer/Copier1[1]', #54 ) ;
#197 = DIRECTION ( 'NONE',  ( -3.491481338843133355E-15, 1.224646799147353207E-16, -1.000000000000000000 ) ) ;
#198 = AXIS2_PLACEMENT_3D ( 'NONE', #114, #182, #98 ) ;
#199 = EDGE_LOOP ( 'NONE', ( #236 ) ) ;
#200 = CARTESIAN_POINT ( 'NONE',  ( 1.326762908760390423E-13, 1.199999999999994182, 38.00000000000000000 ) ) ;
#201 = ADVANCED_FACE ( 'NONE', ( #61, #96 ), #85, .T. ) ;
#202 = CARTESIAN_POINT ( 'NONE',  ( 0.0000000000000000000, 0.0000000000000000000, 0.0000000000000000000 ) ) ;
#203 = AXIS2_PLACEMENT_3D ( 'NONE', #175, #197, #15 ) ;
#204 = SECURITY_CLASSIFICATION ( '', '', #169 ) ;
#205 = CARTESIAN_POINT ( 'NONE',  ( 3.666055405785290812E-15, -1.517883041479710645E-16, 1.050000000000000044 ) ) ;
#206 = CARTESIAN_POINT ( 'NONE',  ( 0.5250000000000035749, 0.0000000000000000000, 1.049999999999997824 ) ) ;
#207 = CC_DESIGN_PERSON_AND_ORGANIZATION_ASSIGNMENT ( #209, #28, ( #81 ) ) ;
#208 = APPROVAL_STATUS ( 'not_yet_approved' ) ;
#209 = PERSON_AND_ORGANIZATION ( #57, #191 ) ;
#210 = LOCAL_TIME ( 8, 14, 25.00000000000000000, #117 ) ;
#211 = PERSON_AND_ORGANIZATION ( #57, #191 ) ;
#212 = CC_DESIGN_PERSON_AND_ORGANIZATION_ASSIGNMENT ( #49, #233, ( #204 ) ) ;
#213 = EDGE_LOOP ( 'NONE', ( #140 ) ) ;
#214 = ORIENTED_EDGE ( 'NONE', *, *, #240, .T. ) ;
#215 = EDGE_LOOP ( 'NONE', ( #193 ) ) ;
#216 = FACE_OUTER_BOUND ( 'NONE', #237, .T. ) ;
#217 = APPROVAL_PERSON_ORGANIZATION ( #166, #190, #118 ) ;
#218 = DIRECTION ( 'NONE',  ( 1.000000000000000000, 0.0000000000000000000, -3.304235192336775906E-15 ) ) ;
#219 = APPROVAL ( #30, 'UNSPECIFIED' ) ;
#220 = DIRECTION ( 'NONE',  ( 3.491481338843133355E-15, -0.0000000000000000000, 1.000000000000000000 ) ) ;
#221 = DIRECTION ( 'NONE',  ( -4.275831445896958607E-31, -1.000000000000000000, -1.224646799147353207E-16 ) ) ;
#222 = EDGE_CURVE ( 'NONE', #100, #100, #136, .T. ) ;
#223 = AXIS2_PLACEMENT_3D ( 'NONE', #180, #183, #218 ) ;
#224 = DIRECTION ( 'NONE',  ( 0.0000000000000000000, 1.000000000000000000, 0.0000000000000000000 ) ) ;
#225 = FACE_OUTER_BOUND ( 'NONE', #199, .T. ) ;
#226 = APPROVAL_DATE_TIME ( #153, #219 ) ;
#227 = MECHANICAL_CONTEXT ( 'NONE', #146, 'mechanical' ) ;
#228 = AXIS2_PLACEMENT_3D ( 'NONE', #202, #149, #18 ) ;
#229 = CC_DESIGN_SECURITY_CLASSIFICATION ( #204, ( #4 ) ) ;
#230 = PRODUCT_DEFINITION_SHAPE ( 'NONE', 'NONE',  #81 ) ;
#231 = DATE_AND_TIME ( #5, #20 ) ;
#232 = CARTESIAN_POINT ( 'NONE',  ( 0.0000000000000000000, 0.0000000000000000000, 0.0000000000000000000 ) ) ;
#233 = PERSON_AND_ORGANIZATION_ROLE ( 'classification_officer' ) ;
#234 = CIRCLE ( 'NONE', #151, 1.199999999999998845 ) ;
#235 = CIRCLE ( 'NONE', #32, 0.5931483474218594010 ) ;
#236 = ORIENTED_EDGE ( 'NONE', *, *, #181, .F. ) ;
#237 = EDGE_LOOP ( 'NONE', ( #33 ) ) ;
#238 = CARTESIAN_POINT ( 'NONE',  ( 1.326762908760390423E-13, -4.653657836759941941E-15, 38.00000000000000000 ) ) ;
#239 = TOROIDAL_SURFACE ( 'NONE', #92, 2.524999999999999467, 2.000000000000000000 ) ;
#240 = EDGE_CURVE ( 'NONE', #152, #152, #127, .T. ) ;
#241 = ORIENTED_EDGE ( 'NONE', *, *, #181, .T. ) ;
#242 = ADVANCED_FACE ( 'NONE', ( #99, #163 ), #239, .F. ) ;
#243 = VERTEX_POINT ( 'NONE', #206 ) ;
ENDSEC;
END-ISO-10303-21;
