ISO-10303-21;
HEADER;
FILE_DESCRIPTION (( 'STEP AP203' ),
    '1' );
FILE_NAME ('64367.step',
    '2021-11-10T07:14:24',
    ( '' ),
    ( '' ),
    'SwSTEP 2.0',
    'SolidWorks 2019',
    '' );
FILE_SCHEMA (( 'CONFIG_CONTROL_DESIGN' ));
ENDSEC;

DATA;
#1 = EDGE_LOOP ( 'NONE', ( #118 ) ) ;
#2 = CALENDAR_DATE ( 2021, 10, 11 ) ;
#3 = DESIGN_CONTEXT ( 'detailed design', #124, 'design' ) ;
#4 = CYLINDRICAL_SURFACE ( 'NONE', #83, 1.499999999999996447 ) ;
#5 = DIRECTION ( 'NONE',  ( 3.491481338843133355E-15, -0.0000000000000000000, 1.000000000000000000 ) ) ;
#6 = VERTEX_POINT ( 'NONE', #191 ) ;
#7 = ADVANCED_FACE ( 'NONE', ( #135, #208 ), #4, .T. ) ;
#8 = AXIS2_PLACEMENT_3D ( 'NONE', #40, #169, #109 ) ;
#9 = PERSON_AND_ORGANIZATION ( #227, #185 ) ;
#10 = DATE_AND_TIME ( #43, #98 ) ;
#11 = DIRECTION ( 'NONE',  ( 3.491481338843133355E-15, -0.0000000000000000000, 1.000000000000000000 ) ) ;
#12 = DIRECTION ( 'NONE',  ( 3.491481338843133355E-15, -0.0000000000000000000, 1.000000000000000000 ) ) ;
#13 = PERSON_AND_ORGANIZATION_ROLE ( 'design_supplier' ) ;
#14 = CARTESIAN_POINT ( 'NONE',  ( 1.326762908760390423E-13, 1.199999999999994182, 38.00000000000000000 ) ) ;
#15 = CIRCLE ( 'NONE', #8, 1.199999999999998845 ) ;
#16 = ORIENTED_EDGE ( 'NONE', *, *, #116, .F. ) ;
#17 = DIRECTION ( 'NONE',  ( 3.491481338843133355E-15, -0.0000000000000000000, 1.000000000000000000 ) ) ;
#18 = FACE_BOUND ( 'NONE', #115, .T. ) ;
#19 = PERSON_AND_ORGANIZATION ( #227, #185 ) ;
#20 = ADVANCED_FACE ( 'NONE', ( #137, #210 ), #44, .T. ) ;
#21 = APPLICATION_PROTOCOL_DEFINITION ( 'international standard', 'config_control_design', 1994, #30 ) ;
#22 = ORIENTED_EDGE ( 'NONE', *, *, #114, .T. ) ;
#23 =( NAMED_UNIT ( * ) SI_UNIT ( $, .STERADIAN. ) SOLID_ANGLE_UNIT ( ) );
#24 = ORIENTED_EDGE ( 'NONE', *, *, #29, .F. ) ;
#25 = AXIS2_PLACEMENT_3D ( 'NONE', #172, #5, #216 ) ;
#26 = CC_DESIGN_PERSON_AND_ORGANIZATION_ASSIGNMENT ( #102, #13, ( #31 ) ) ;
#27 = PRODUCT_DEFINITION ( 'UNKNOWN', '', #31, #3 ) ;
#28 = LOCAL_TIME ( 8, 14, 24.00000000000000000, #108 ) ;
#29 = EDGE_CURVE ( 'NONE', #121, #121, #51, .T. ) ;
#30 = APPLICATION_CONTEXT ( 'configuration controlled 3d designs of mechanical parts and assemblies' ) ;
#31 = PRODUCT_DEFINITION_FORMATION_WITH_SPECIFIED_SOURCE ( 'ANY', '', #211, .NOT_KNOWN. ) ;
#32 = EDGE_CURVE ( 'NONE', #6, #6, #113, .T. ) ;
#33 = DIRECTION ( 'NONE',  ( 3.491481338843133355E-15, -1.224646799147353207E-16, 1.000000000000000000 ) ) ;
#34 = EDGE_LOOP ( 'NONE', ( #110 ) ) ;
#35 = DIRECTION ( 'NONE',  ( 1.000000000000000000, 0.0000000000000000000, -3.434954830599615000E-15 ) ) ;
#36 = PLANE ( 'NONE',  #213 ) ;
#37 =( NAMED_UNIT ( * ) PLANE_ANGLE_UNIT ( ) SI_UNIT ( $, .RADIAN. ) );
#38 = APPROVAL_PERSON_ORGANIZATION ( #60, #226, #136 ) ;
#39 = ORIENTED_EDGE ( 'NONE', *, *, #123, .F. ) ;
#40 = CARTESIAN_POINT ( 'NONE',  ( 1.326762908760390423E-13, -4.653657836759941941E-15, 38.00000000000000000 ) ) ;
#41 = ADVANCED_BREP_SHAPE_REPRESENTATION ( '64367', ( #145, #66, #144 ), #105 ) ;
#42 = UNCERTAINTY_MEASURE_WITH_UNIT (LENGTH_MEASURE( 1.000000000000000082E-05 ), #132, 'distance_accuracy_value', 'NONE');
#43 = CALENDAR_DATE ( 2021, 10, 11 ) ;
#44 = CYLINDRICAL_SURFACE ( 'NONE', #25, 0.5000000000000000000 ) ;
#45 = PERSON_AND_ORGANIZATION ( #227, #185 ) ;
#46 = AXIS2_PLACEMENT_3D ( 'NONE', #184, #90, #93 ) ;
#47 = DIRECTION ( 'NONE',  ( -4.275831445896958607E-31, -1.000000000000000000, -1.224646799147353207E-16 ) ) ;
#48 = ADVANCED_FACE ( 'NONE', ( #236 ), #201, .T. ) ;
#49 = AXIS2_PLACEMENT_3D ( 'NONE', #221, #146, #165 ) ;
#50 = PRODUCT_DEFINITION_SHAPE ( 'NONE', 'NONE',  #27 ) ;
#51 = CIRCLE ( 'NONE', #156, 1.499999999999998446 ) ;
#52 = CARTESIAN_POINT ( 'NONE',  ( 1.744119156616154900E-14, 0.0000000000000000000, 4.995355802743745244 ) ) ;
#53 = APPROVAL_DATE_TIME ( #218, #87 ) ;
#54 = EDGE_LOOP ( 'NONE', ( #130 ) ) ;
#55 = EDGE_LOOP ( 'NONE', ( #24 ) ) ;
#56 = DIRECTION ( 'NONE',  ( 3.491481338843133355E-15, -1.224646799147353207E-16, 1.000000000000000000 ) ) ;
#57 = DIRECTION ( 'NONE',  ( 0.0000000000000000000, 1.000000000000000000, 0.0000000000000000000 ) ) ;
#58 = VERTEX_POINT ( 'NONE', #153 ) ;
#59 = FACE_OUTER_BOUND ( 'NONE', #192, .T. ) ;
#60 = PERSON_AND_ORGANIZATION ( #227, #185 ) ;
#61 = CONICAL_SURFACE ( 'NONE', #122, 1.499999999999996225, 0.2617993877991427465 ) ;
#62 = EDGE_LOOP ( 'NONE', ( #16 ) ) ;
#63 = DATE_TIME_ROLE ( 'creation_date' ) ;
#64 = CARTESIAN_POINT ( 'NONE',  ( 0.0000000000000000000, 0.0000000000000000000, 0.0000000000000000000 ) ) ;
#65 = AXIS2_PLACEMENT_3D ( 'NONE', #70, #11, #104 ) ;
#66 = MANIFOLD_SOLID_BREP ( 'Corps-Déplacer/Copier1[2]', #128 ) ;
#67 = CC_DESIGN_SECURITY_CLASSIFICATION ( #175, ( #31 ) ) ;
#68 = ADVANCED_FACE ( 'NONE', ( #157, #199 ), #61, .T. ) ;
#69 = DIRECTION ( 'NONE',  ( 0.0000000000000000000, 1.000000000000000000, 0.0000000000000000000 ) ) ;
#70 = CARTESIAN_POINT ( 'NONE',  ( 3.491481338843130989E-15, 0.0000000000000000000, 0.9999999999999993339 ) ) ;
#71 = AXIS2_PLACEMENT_3D ( 'NONE', #89, #33, #162 ) ;
#72 = ORIENTED_EDGE ( 'NONE', *, *, #114, .F. ) ;
#73 = DIRECTION ( 'NONE',  ( 1.000000000000000000, 0.0000000000000000000, -3.491481338843133355E-15 ) ) ;
#74 = CARTESIAN_POINT ( 'NONE',  ( 1.326762908760390423E-13, -4.653657836759941941E-15, 38.00000000000000000 ) ) ;
#75 = APPROVAL_ROLE ( '' ) ;
#76 = EDGE_LOOP ( 'NONE', ( #95 ) ) ;
#77 = APPROVAL_STATUS ( 'not_yet_approved' ) ;
#78 = APPROVAL ( #119, 'UNSPECIFIED' ) ;
#79 = AXIS2_PLACEMENT_3D ( 'NONE', #237, #17, #35 ) ;
#80 = EDGE_LOOP ( 'NONE', ( #188 ) ) ;
#81 = CARTESIAN_POINT ( 'NONE',  ( -6.413803915257457113E-31, 2.249659577954772199E-32, -1.836986451539393076E-16 ) ) ;
#82 = APPROVAL_PERSON_ORGANIZATION ( #45, #78, #75 ) ;
#83 = AXIS2_PLACEMENT_3D ( 'NONE', #64, #152, #232 ) ;
#84 = APPROVAL_ROLE ( '' ) ;
#85 = LOCAL_TIME ( 8, 14, 24.00000000000000000, #134 ) ;
#86 = SECURITY_CLASSIFICATION_LEVEL ( 'unclassified' ) ;
#87 = APPROVAL ( #178, 'UNSPECIFIED' ) ;
#88 = CARTESIAN_POINT ( 'NONE',  ( 3.491481338843130989E-15, 0.0000000000000000000, 0.9999999999999993339 ) ) ;
#89 = CARTESIAN_POINT ( 'NONE',  ( 3.491481338843133355E-15, -1.445602896647343354E-16, 1.000000000000000000 ) ) ;
#90 = DIRECTION ( 'NONE',  ( 3.491481338843133355E-15, -0.0000000000000000000, 1.000000000000000000 ) ) ;
#91 = AXIS2_PLACEMENT_3D ( 'NONE', #129, #12, #181 ) ;
#92 = ORIENTED_EDGE ( 'NONE', *, *, #29, .T. ) ;
#93 = DIRECTION ( 'NONE',  ( 1.000000000000000000, 0.0000000000000000000, -3.469446951953622866E-15 ) ) ;
#94 = CALENDAR_DATE ( 2021, 10, 11 ) ;
#95 = ORIENTED_EDGE ( 'NONE', *, *, #32, .F. ) ;
#96 = DIRECTION ( 'NONE',  ( 1.000000000000000000, 0.0000000000000000000, 0.0000000000000000000 ) ) ;
#97 = EDGE_LOOP ( 'NONE', ( #228 ) ) ;
#98 = LOCAL_TIME ( 8, 14, 24.00000000000000000, #209 ) ;
#99 = ORIENTED_EDGE ( 'NONE', *, *, #180, .T. ) ;
#100 = VERTEX_POINT ( 'NONE', #147 ) ;
#101 = CIRCLE ( 'NONE', #46, 1.499999999999996225 ) ;
#102 = PERSON_AND_ORGANIZATION ( #227, #185 ) ;
#103 = CALENDAR_DATE ( 2021, 10, 11 ) ;
#104 = DIRECTION ( 'NONE',  ( 1.000000000000000000, 0.0000000000000000000, -3.469446951953614189E-15 ) ) ;
#105 =( GEOMETRIC_REPRESENTATION_CONTEXT ( 3 ) GLOBAL_UNCERTAINTY_ASSIGNED_CONTEXT ( ( #42 ) ) GLOBAL_UNIT_ASSIGNED_CONTEXT ( ( #132, #37, #23 ) ) REPRESENTATION_CONTEXT ( 'NONE', 'WORKASPACE' ) );
#106 = DATE_AND_TIME ( #176, #28 ) ;
#107 = DIRECTION ( 'NONE',  ( -3.491481338843133355E-15, 1.224646799147353207E-16, -1.000000000000000000 ) ) ;
#108 = COORDINATED_UNIVERSAL_TIME_OFFSET ( 1, 0, .AHEAD. ) ;
#109 = DIRECTION ( 'NONE',  ( 0.0000000000000000000, 1.000000000000000000, 0.0000000000000000000 ) ) ;
#110 = ORIENTED_EDGE ( 'NONE', *, *, #116, .T. ) ;
#111 = FACE_OUTER_BOUND ( 'NONE', #148, .T. ) ;
#112 = FACE_OUTER_BOUND ( 'NONE', #76, .T. ) ;
#113 = CIRCLE ( 'NONE', #91, 0.5000000000000000000 ) ;
#114 = EDGE_CURVE ( 'NONE', #100, #100, #171, .T. ) ;
#115 = EDGE_LOOP ( 'NONE', ( #99 ) ) ;
#116 = EDGE_CURVE ( 'NONE', #151, #151, #205, .T. ) ;
#117 = CARTESIAN_POINT ( 'NONE',  ( 0.5000000000000034417, 0.0000000000000000000, 0.9999999999999976685 ) ) ;
#118 = ORIENTED_EDGE ( 'NONE', *, *, #32, .T. ) ;
#119 = APPROVAL_STATUS ( 'not_yet_approved' ) ;
#120 = TOROIDAL_SURFACE ( 'NONE', #234, 2.500000000000000444, 2.000000000000000000 ) ;
#121 = VERTEX_POINT ( 'NONE', #194 ) ;
#122 = AXIS2_PLACEMENT_3D ( 'NONE', #52, #142, #127 ) ;
#123 = EDGE_CURVE ( 'NONE', #189, #189, #195, .T. ) ;
#124 = APPLICATION_CONTEXT ( 'configuration controlled 3d designs of mechanical parts and assemblies' ) ;
#125 = PRODUCT_RELATED_PRODUCT_CATEGORY ( 'detail', '', ( #211 ) ) ;
#126 = CC_DESIGN_APPROVAL ( #226, ( #31 ) ) ;
#127 = DIRECTION ( 'NONE',  ( 1.000000000000000000, 0.0000000000000000000, -3.469446951953622866E-15 ) ) ;
#128 = CLOSED_SHELL ( 'NONE', ( #48, #20, #242 ) ) ;
#129 = CARTESIAN_POINT ( 'NONE',  ( 0.0000000000000000000, 0.0000000000000000000, 0.0000000000000000000 ) ) ;
#130 = ORIENTED_EDGE ( 'NONE', *, *, #123, .T. ) ;
#131 = DIRECTION ( 'NONE',  ( 3.491481338843133355E-15, -0.0000000000000000000, 1.000000000000000000 ) ) ;
#132 =( LENGTH_UNIT ( ) NAMED_UNIT ( * ) SI_UNIT ( .MILLI., .METRE. ) );
#133 = CC_DESIGN_PERSON_AND_ORGANIZATION_ASSIGNMENT ( #170, #150, ( #27 ) ) ;
#134 = COORDINATED_UNIVERSAL_TIME_OFFSET ( 1, 0, .AHEAD. ) ;
#135 = FACE_OUTER_BOUND ( 'NONE', #223, .T. ) ;
#136 = APPROVAL_ROLE ( '' ) ;
#137 = FACE_OUTER_BOUND ( 'NONE', #1, .T. ) ;
#138 = LOCAL_TIME ( 8, 14, 24.00000000000000000, #167 ) ;
#139 = AXIS2_PLACEMENT_3D ( 'NONE', #88, #219, #160 ) ;
#140 = APPROVAL_DATE_TIME ( #10, #226 ) ;
#141 = AXIS2_PLACEMENT_3D ( 'NONE', #74, #204, #57 ) ;
#142 = DIRECTION ( 'NONE',  ( 3.491481338843133355E-15, -0.0000000000000000000, 1.000000000000000000 ) ) ;
#143 = CC_DESIGN_PERSON_AND_ORGANIZATION_ASSIGNMENT ( #200, #198, ( #175 ) ) ;
#144 = AXIS2_PLACEMENT_3D ( 'NONE', #187, #212, #96 ) ;
#145 = MANIFOLD_SOLID_BREP ( 'Corps-Déplacer/Copier1[1]', #179 ) ;
#146 = DIRECTION ( 'NONE',  ( -3.491481338843133355E-15, 1.224646799147353207E-16, -1.000000000000000000 ) ) ;
#147 = CARTESIAN_POINT ( 'NONE',  ( 0.5000000000000034417, 0.0000000000000000000, 0.9999999999999976685 ) ) ;
#148 = EDGE_LOOP ( 'NONE', ( #22 ) ) ;
#149 = PLANE ( 'NONE',  #166 ) ;
#150 = PERSON_AND_ORGANIZATION_ROLE ( 'creator' ) ;
#151 = VERTEX_POINT ( 'NONE', #117 ) ;
#152 = DIRECTION ( 'NONE',  ( -3.491481338843133355E-15, 1.224646799147353207E-16, -1.000000000000000000 ) ) ;
#153 = CARTESIAN_POINT ( 'NONE',  ( 1.500000000000013545, 0.0000000000000000000, 4.995355802743739915 ) ) ;
#154 = CC_DESIGN_PERSON_AND_ORGANIZATION_ASSIGNMENT ( #214, #164, ( #31 ) ) ;
#155 = CONICAL_SURFACE ( 'NONE', #141, 1.199999999999998845, 0.7853981633974450594 ) ;
#156 = AXIS2_PLACEMENT_3D ( 'NONE', #217, #107, #69 ) ;
#157 = FACE_BOUND ( 'NONE', #54, .T. ) ;
#158 = COORDINATED_UNIVERSAL_TIME_OFFSET ( 1, 0, .AHEAD. ) ;
#159 = ADVANCED_FACE ( 'NONE', ( #111, #59 ), #120, .F. ) ;
#160 = DIRECTION ( 'NONE',  ( 1.000000000000000000, 0.0000000000000000000, -3.469446951953614189E-15 ) ) ;
#161 = EDGE_CURVE ( 'NONE', #58, #58, #101, .T. ) ;
#162 = DIRECTION ( 'NONE',  ( -4.275831445896958607E-31, -1.000000000000000000, -1.224646799147353207E-16 ) ) ;
#163 = CC_DESIGN_DATE_AND_TIME_ASSIGNMENT ( #106, #182, ( #175 ) ) ;
#164 = PERSON_AND_ORGANIZATION_ROLE ( 'creator' ) ;
#165 = DIRECTION ( 'NONE',  ( 4.275831445896958607E-31, 1.000000000000000000, 1.224646799147353207E-16 ) ) ;
#166 = AXIS2_PLACEMENT_3D ( 'NONE', #224, #56, #239 ) ;
#167 = COORDINATED_UNIVERSAL_TIME_OFFSET ( 1, 0, .AHEAD. ) ;
#168 = EDGE_LOOP ( 'NONE', ( #202 ) ) ;
#169 = DIRECTION ( 'NONE',  ( -3.491481338843133355E-15, 1.224646799147353207E-16, -1.000000000000000000 ) ) ;
#170 = PERSON_AND_ORGANIZATION ( #227, #185 ) ;
#171 = CIRCLE ( 'NONE', #65, 0.5000000000000000000 ) ;
#172 = CARTESIAN_POINT ( 'NONE',  ( -1.786038389295302186E-30, 0.0000000000000000000, -5.115417256925931626E-16 ) ) ;
#173 = APPLICATION_PROTOCOL_DEFINITION ( 'international standard', 'config_control_design', 1994, #124 ) ;
#174 = CC_DESIGN_APPROVAL ( #78, ( #27 ) ) ;
#175 = SECURITY_CLASSIFICATION ( '', '', #86 ) ;
#176 = CALENDAR_DATE ( 2021, 10, 11 ) ;
#177 = CC_DESIGN_DATE_AND_TIME_ASSIGNMENT ( #225, #63, ( #27 ) ) ;
#178 = APPROVAL_STATUS ( 'not_yet_approved' ) ;
#179 = CLOSED_SHELL ( 'NONE', ( #7, #231, #197, #159, #68, #207 ) ) ;
#180 = EDGE_CURVE ( 'NONE', #206, #206, #15, .T. ) ;
#181 = DIRECTION ( 'NONE',  ( 1.000000000000000000, 0.0000000000000000000, -3.491481338843133355E-15 ) ) ;
#182 = DATE_TIME_ROLE ( 'classification_date' ) ;
#183 = PLANE ( 'NONE',  #49 ) ;
#184 = CARTESIAN_POINT ( 'NONE',  ( 1.744119156616154900E-14, 0.0000000000000000000, 4.995355802743745244 ) ) ;
#185 = ORGANIZATION ( 'UNSPECIFIED', 'UNSPECIFIED', '' ) ;
#186 = FACE_OUTER_BOUND ( 'NONE', #55, .T. ) ;
#187 = CARTESIAN_POINT ( 'NONE',  ( 0.0000000000000000000, 0.0000000000000000000, 0.0000000000000000000 ) ) ;
#188 = ORIENTED_EDGE ( 'NONE', *, *, #161, .F. ) ;
#189 = VERTEX_POINT ( 'NONE', #222 ) ;
#190 = CC_DESIGN_PERSON_AND_ORGANIZATION_ASSIGNMENT ( #19, #243, ( #211 ) ) ;
#191 = CARTESIAN_POINT ( 'NONE',  ( 0.5000000000000000000, 0.0000000000000000000, -1.745740669421566678E-15 ) ) ;
#192 = EDGE_LOOP ( 'NONE', ( #39 ) ) ;
#193 = MECHANICAL_CONTEXT ( 'NONE', #30, 'mechanical' ) ;
#194 = CARTESIAN_POINT ( 'NONE',  ( 1.316288464743861212E-13, 1.499999999999994005, 37.69999999999999574 ) ) ;
#195 = CIRCLE ( 'NONE', #79, 0.5681483474218604890 ) ;
#196 = CC_DESIGN_APPROVAL ( #87, ( #175 ) ) ;
#197 = ADVANCED_FACE ( 'NONE', ( #241 ), #183, .F. ) ;
#198 = PERSON_AND_ORGANIZATION_ROLE ( 'classification_officer' ) ;
#199 = FACE_OUTER_BOUND ( 'NONE', #80, .T. ) ;
#200 = PERSON_AND_ORGANIZATION ( #227, #185 ) ;
#201 = PLANE ( 'NONE',  #71 ) ;
#202 = ORIENTED_EDGE ( 'NONE', *, *, #180, .F. ) ;
#203 = FACE_OUTER_BOUND ( 'NONE', #220, .T. ) ;
#204 = DIRECTION ( 'NONE',  ( -3.491481338843133355E-15, 1.224646799147353207E-16, -1.000000000000000000 ) ) ;
#205 = CIRCLE ( 'NONE', #139, 0.5000000000000000000 ) ;
#206 = VERTEX_POINT ( 'NONE', #14 ) ;
#207 = ADVANCED_FACE ( 'NONE', ( #203 ), #149, .F. ) ;
#208 = FACE_OUTER_BOUND ( 'NONE', #97, .T. ) ;
#209 = COORDINATED_UNIVERSAL_TIME_OFFSET ( 1, 0, .AHEAD. ) ;
#210 = FACE_OUTER_BOUND ( 'NONE', #62, .T. ) ;
#211 = PRODUCT ( '64367', '64367', '', ( #193 ) ) ;
#212 = DIRECTION ( 'NONE',  ( 0.0000000000000000000, 0.0000000000000000000, 1.000000000000000000 ) ) ;
#213 = AXIS2_PLACEMENT_3D ( 'NONE', #81, #233, #47 ) ;
#214 = PERSON_AND_ORGANIZATION ( #227, #185 ) ;
#215 = LOCAL_TIME ( 8, 14, 24.00000000000000000, #158 ) ;
#216 = DIRECTION ( 'NONE',  ( 1.000000000000000000, 0.0000000000000000000, -3.491481338843133355E-15 ) ) ;
#217 = CARTESIAN_POINT ( 'NONE',  ( 1.316288464743861212E-13, -4.616918432785521081E-15, 37.69999999999999574 ) ) ;
#218 = DATE_AND_TIME ( #103, #215 ) ;
#219 = DIRECTION ( 'NONE',  ( 3.491481338843133355E-15, -0.0000000000000000000, 1.000000000000000000 ) ) ;
#220 = EDGE_LOOP ( 'NONE', ( #72 ) ) ;
#221 = CARTESIAN_POINT ( 'NONE',  ( 1.326762908760390423E-13, 8.998558695971069014E-33, 38.00000000000000000 ) ) ;
#222 = CARTESIAN_POINT ( 'NONE',  ( 0.5681483474218658181, 0.0000000000000000000, 1.517638090205026380 ) ) ;
#223 = EDGE_LOOP ( 'NONE', ( #92 ) ) ;
#224 = CARTESIAN_POINT ( 'NONE',  ( 3.491481338843133355E-15, -1.445602896647343354E-16, 1.000000000000000000 ) ) ;
#225 = DATE_AND_TIME ( #2, #85 ) ;
#226 = APPROVAL ( #77, 'UNSPECIFIED' ) ;
#227 = PERSON ( 'UNSPECIFIED', 'UNSPECIFIED', 'UNSPECIFIED', ('UNSPECIFIED'), ('UNSPECIFIED'), ('UNSPECIFIED') ) ;
#228 = ORIENTED_EDGE ( 'NONE', *, *, #161, .T. ) ;
#229 = APPROVAL_PERSON_ORGANIZATION ( #9, #87, #84 ) ;
#230 = DATE_AND_TIME ( #94, #138 ) ;
#231 = ADVANCED_FACE ( 'NONE', ( #186, #18 ), #155, .T. ) ;
#232 = DIRECTION ( 'NONE',  ( 4.275831445896958607E-31, 1.000000000000000000, 1.224646799147352961E-16 ) ) ;
#233 = DIRECTION ( 'NONE',  ( 3.491481338843133355E-15, -1.224646799147353207E-16, 1.000000000000000000 ) ) ;
#234 = AXIS2_PLACEMENT_3D ( 'NONE', #238, #131, #73 ) ;
#235 = SHAPE_DEFINITION_REPRESENTATION ( #50, #41 ) ;
#236 = FACE_OUTER_BOUND ( 'NONE', #34, .T. ) ;
#237 = CARTESIAN_POINT ( 'NONE',  ( 5.298805071068388947E-15, 0.0000000000000000000, 1.517638090205028378 ) ) ;
#238 = CARTESIAN_POINT ( 'NONE',  ( 3.491481338843131778E-15, 0.0000000000000000000, 0.9999999999999995559 ) ) ;
#239 = DIRECTION ( 'NONE',  ( -4.275831445896958607E-31, -1.000000000000000000, -1.224646799147353207E-16 ) ) ;
#240 = APPROVAL_DATE_TIME ( #230, #78 ) ;
#241 = FACE_OUTER_BOUND ( 'NONE', #168, .T. ) ;
#242 = ADVANCED_FACE ( 'NONE', ( #112 ), #36, .F. ) ;
#243 = PERSON_AND_ORGANIZATION_ROLE ( 'design_owner' ) ;
ENDSEC;
END-ISO-10303-21;
