ISO-10303-21;
HEADER;
FILE_DESCRIPTION (( 'STEP AP203' ),
    '1' );
FILE_NAME ('64366.step',
    '2021-11-10T07:14:24',
    ( '' ),
    ( '' ),
    'SwSTEP 2.0',
    'SolidWorks 2019',
    '' );
FILE_SCHEMA (( 'CONFIG_CONTROL_DESIGN' ));
ENDSEC;

DATA;
#1 = CARTESIAN_POINT ( 'NONE',  ( 1.500000000000013767, 0.0000000000000000000, 5.038657072932965164 ) ) ;
#2 = COORDINATED_UNIVERSAL_TIME_OFFSET ( 1, 0, .AHEAD. ) ;
#3 = PERSON_AND_ORGANIZATION ( #78, #234 ) ;
#4 = CIRCLE ( 'NONE', #151, 1.499999999999998446 ) ;
#5 =( GEOMETRIC_REPRESENTATION_CONTEXT ( 3 ) GLOBAL_UNCERTAINTY_ASSIGNED_CONTEXT ( ( #226 ) ) GLOBAL_UNIT_ASSIGNED_CONTEXT ( ( #152, #110, #199 ) ) REPRESENTATION_CONTEXT ( 'NONE', 'WORKASPACE' ) );
#6 = PERSON_AND_ORGANIZATION ( #78, #234 ) ;
#7 = AXIS2_PLACEMENT_3D ( 'NONE', #55, #131, #241 ) ;
#8 = CC_DESIGN_APPROVAL ( #63, ( #121 ) ) ;
#9 = EDGE_LOOP ( 'NONE', ( #134 ) ) ;
#10 = DIRECTION ( 'NONE',  ( 1.000000000000000000, 0.0000000000000000000, -3.469446951953622866E-15 ) ) ;
#11 = DIRECTION ( 'NONE',  ( 3.491481338843133355E-15, -0.0000000000000000000, 1.000000000000000000 ) ) ;
#12 = CYLINDRICAL_SURFACE ( 'NONE', #93, 0.4749999999999997558 ) ;
#13 = DIRECTION ( 'NONE',  ( 3.491481338843133355E-15, -0.0000000000000000000, 1.000000000000000000 ) ) ;
#14 = DIRECTION ( 'NONE',  ( 4.275831445896958607E-31, 1.000000000000000000, 1.224646799147352961E-16 ) ) ;
#15 = PERSON_AND_ORGANIZATION ( #78, #234 ) ;
#16 = CARTESIAN_POINT ( 'NONE',  ( 0.5431483474218647967, 0.0000000000000000000, 1.467638090205026336 ) ) ;
#17 = EDGE_CURVE ( 'NONE', #149, #149, #4, .T. ) ;
#18 = VERTEX_POINT ( 'NONE', #169 ) ;
#19 = AXIS2_PLACEMENT_3D ( 'NONE', #198, #11, #76 ) ;
#20 = DIRECTION ( 'NONE',  ( 1.000000000000000000, 0.0000000000000000000, -3.469446951953622866E-15 ) ) ;
#21 = EDGE_LOOP ( 'NONE', ( #192 ) ) ;
#22 = PERSON_AND_ORGANIZATION ( #78, #234 ) ;
#23 = ORIENTED_EDGE ( 'NONE', *, *, #230, .F. ) ;
#24 = APPROVAL_PERSON_ORGANIZATION ( #155, #156, #40 ) ;
#25 = CC_DESIGN_PERSON_AND_ORGANIZATION_ASSIGNMENT ( #58, #135, ( #121 ) ) ;
#26 = CLOSED_SHELL ( 'NONE', ( #160, #116, #164, #85, #33, #174 ) ) ;
#27 = AXIS2_PLACEMENT_3D ( 'NONE', #57, #112, #181 ) ;
#28 = EDGE_CURVE ( 'NONE', #182, #182, #43, .T. ) ;
#29 = CARTESIAN_POINT ( 'NONE',  ( 3.316907271900974715E-15, 0.0000000000000000000, 0.9499999999999995115 ) ) ;
#30 = CARTESIAN_POINT ( 'NONE',  ( 3.316907271900975899E-15, -1.373322751814975817E-16, 0.9499999999999997335 ) ) ;
#31 = FACE_OUTER_BOUND ( 'NONE', #44, .T. ) ;
#32 = PLANE ( 'NONE',  #48 ) ;
#33 = ADVANCED_FACE ( 'NONE', ( #238, #88 ), #243, .T. ) ;
#34 = FACE_OUTER_BOUND ( 'NONE', #41, .T. ) ;
#35 = SECURITY_CLASSIFICATION ( '', '', #139 ) ;
#36 = APPROVAL_STATUS ( 'not_yet_approved' ) ;
#37 = APPROVAL_ROLE ( '' ) ;
#38 = VERTEX_POINT ( 'NONE', #1 ) ;
#39 = AXIS2_PLACEMENT_3D ( 'NONE', #92, #130, #20 ) ;
#40 = APPROVAL_ROLE ( '' ) ;
#41 = EDGE_LOOP ( 'NONE', ( #207 ) ) ;
#42 = APPROVAL ( #191, 'UNSPECIFIED' ) ;
#43 = CIRCLE ( 'NONE', #210, 0.5431483474218598007 ) ;
#44 = EDGE_LOOP ( 'NONE', ( #237 ) ) ;
#45 = COORDINATED_UNIVERSAL_TIME_OFFSET ( 1, 0, .AHEAD. ) ;
#46 = ORIENTED_EDGE ( 'NONE', *, *, #232, .T. ) ;
#47 = DIRECTION ( 'NONE',  ( -3.491481338843133355E-15, 1.224646799147353207E-16, -1.000000000000000000 ) ) ;
#48 = AXIS2_PLACEMENT_3D ( 'NONE', #180, #235, #142 ) ;
#49 = APPROVAL_PERSON_ORGANIZATION ( #6, #42, #204 ) ;
#50 = FACE_OUTER_BOUND ( 'NONE', #115, .T. ) ;
#51 = DIRECTION ( 'NONE',  ( 1.000000000000000000, 0.0000000000000000000, -3.491481338843132961E-15 ) ) ;
#52 = EDGE_CURVE ( 'NONE', #59, #59, #214, .T. ) ;
#53 = CARTESIAN_POINT ( 'NONE',  ( 1.759237714297543368E-14, 0.0000000000000000000, 5.038657072932970493 ) ) ;
#54 = DIRECTION ( 'NONE',  ( 3.491481338843133355E-15, -0.0000000000000000000, 1.000000000000000000 ) ) ;
#55 = CARTESIAN_POINT ( 'NONE',  ( -6.413803915257457113E-31, 2.249659577954772199E-32, -1.836986451539393076E-16 ) ) ;
#56 = CC_DESIGN_PERSON_AND_ORGANIZATION_ASSIGNMENT ( #22, #98, ( #35 ) ) ;
#57 = CARTESIAN_POINT ( 'NONE',  ( 0.0000000000000000000, 0.0000000000000000000, 0.0000000000000000000 ) ) ;
#58 = PERSON_AND_ORGANIZATION ( #78, #234 ) ;
#59 = VERTEX_POINT ( 'NONE', #77 ) ;
#60 = CARTESIAN_POINT ( 'NONE',  ( 0.4750000000000030309, 0.0000000000000000000, 0.9499999999999976241 ) ) ;
#61 = PRODUCT_DEFINITION_SHAPE ( 'NONE', 'NONE',  #121 ) ;
#62 = EDGE_LOOP ( 'NONE', ( #101 ) ) ;
#63 = APPROVAL ( #36, 'UNSPECIFIED' ) ;
#64 = DATE_AND_TIME ( #227, #193 ) ;
#65 = DATE_TIME_ROLE ( 'creation_date' ) ;
#66 = AXIS2_PLACEMENT_3D ( 'NONE', #29, #123, #68 ) ;
#67 = CARTESIAN_POINT ( 'NONE',  ( 1.326762908760390423E-13, -4.653657836759941941E-15, 38.00000000000000000 ) ) ;
#68 = DIRECTION ( 'NONE',  ( 1.000000000000000000, 0.0000000000000000000, -3.491481338843133355E-15 ) ) ;
#69 = EDGE_LOOP ( 'NONE', ( #118 ) ) ;
#70 = CARTESIAN_POINT ( 'NONE',  ( 0.0000000000000000000, 0.0000000000000000000, 0.0000000000000000000 ) ) ;
#71 = DIRECTION ( 'NONE',  ( -3.491481338843133355E-15, 1.224646799147353207E-16, -1.000000000000000000 ) ) ;
#72 = MANIFOLD_SOLID_BREP ( 'Corps-Déplacer/Copier1[1]', #26 ) ;
#73 = PLANE ( 'NONE',  #7 ) ;
#74 = DIRECTION ( 'NONE',  ( 3.491481338843133355E-15, -0.0000000000000000000, 1.000000000000000000 ) ) ;
#75 = DATE_AND_TIME ( #242, #168 ) ;
#76 = DIRECTION ( 'NONE',  ( 1.000000000000000000, 0.0000000000000000000, -3.491481338843132961E-15 ) ) ;
#77 = CARTESIAN_POINT ( 'NONE',  ( 1.326762908760390423E-13, 1.199999999999994182, 38.00000000000000000 ) ) ;
#78 = PERSON ( 'UNSPECIFIED', 'UNSPECIFIED', 'UNSPECIFIED', ('UNSPECIFIED'), ('UNSPECIFIED'), ('UNSPECIFIED') ) ;
#79 = CALENDAR_DATE ( 2021, 10, 11 ) ;
#80 = APPROVAL_DATE_TIME ( #171, #156 ) ;
#81 = AXIS2_PLACEMENT_3D ( 'NONE', #162, #213, #194 ) ;
#82 = CC_DESIGN_DATE_AND_TIME_ASSIGNMENT ( #64, #65, ( #121 ) ) ;
#83 = FACE_OUTER_BOUND ( 'NONE', #176, .T. ) ;
#84 = ORIENTED_EDGE ( 'NONE', *, *, #17, .F. ) ;
#85 = ADVANCED_FACE ( 'NONE', ( #83, #158 ), #183, .F. ) ;
#86 = ORIENTED_EDGE ( 'NONE', *, *, #17, .T. ) ;
#87 = FACE_OUTER_BOUND ( 'NONE', #122, .T. ) ;
#88 = FACE_OUTER_BOUND ( 'NONE', #209, .T. ) ;
#89 = AXIS2_PLACEMENT_3D ( 'NONE', #53, #126, #10 ) ;
#90 = CC_DESIGN_SECURITY_CLASSIFICATION ( #35, ( #228 ) ) ;
#91 = FACE_OUTER_BOUND ( 'NONE', #69, .T. ) ;
#92 = CARTESIAN_POINT ( 'NONE',  ( 1.759237714297543368E-14, 0.0000000000000000000, 5.038657072932970493 ) ) ;
#93 = AXIS2_PLACEMENT_3D ( 'NONE', #105, #13, #51 ) ;
#94 = CARTESIAN_POINT ( 'NONE',  ( 3.316907271900973927E-15, 0.0000000000000000000, 0.9499999999999992895 ) ) ;
#95 = CARTESIAN_POINT ( 'NONE',  ( 1.316288464743861212E-13, 1.499999999999994005, 37.69999999999999574 ) ) ;
#96 = APPROVAL_STATUS ( 'not_yet_approved' ) ;
#97 = PRODUCT ( '64366', '64366', '', ( #108 ) ) ;
#98 = PERSON_AND_ORGANIZATION_ROLE ( 'classification_officer' ) ;
#99 = AXIS2_PLACEMENT_3D ( 'NONE', #30, #104, #177 ) ;
#100 = CIRCLE ( 'NONE', #215, 0.4749999999999997558 ) ;
#101 = ORIENTED_EDGE ( 'NONE', *, *, #52, .T. ) ;
#102 = CC_DESIGN_PERSON_AND_ORGANIZATION_ASSIGNMENT ( #212, #229, ( #228 ) ) ;
#103 = PLANE ( 'NONE',  #172 ) ;
#104 = DIRECTION ( 'NONE',  ( 3.491481338843133355E-15, -1.224646799147353207E-16, 1.000000000000000000 ) ) ;
#105 = CARTESIAN_POINT ( 'NONE',  ( -1.786038389295302186E-30, 0.0000000000000000000, -5.115417256925931626E-16 ) ) ;
#106 = EDGE_LOOP ( 'NONE', ( #205 ) ) ;
#107 = FACE_OUTER_BOUND ( 'NONE', #9, .T. ) ;
#108 = MECHANICAL_CONTEXT ( 'NONE', #236, 'mechanical' ) ;
#109 = APPLICATION_PROTOCOL_DEFINITION ( 'international standard', 'config_control_design', 1994, #217 ) ;
#110 =( NAMED_UNIT ( * ) PLANE_ANGLE_UNIT ( ) SI_UNIT ( $, .RADIAN. ) );
#111 = AXIS2_PLACEMENT_3D ( 'NONE', #94, #225, #224 ) ;
#112 = DIRECTION ( 'NONE',  ( 0.0000000000000000000, 0.0000000000000000000, 1.000000000000000000 ) ) ;
#113 = COORDINATED_UNIVERSAL_TIME_OFFSET ( 1, 0, .AHEAD. ) ;
#114 = EDGE_LOOP ( 'NONE', ( #178 ) ) ;
#115 = EDGE_LOOP ( 'NONE', ( #231 ) ) ;
#116 = ADVANCED_FACE ( 'NONE', ( #196, #219 ), #201, .T. ) ;
#117 = DATE_AND_TIME ( #79, #211 ) ;
#118 = ORIENTED_EDGE ( 'NONE', *, *, #187, .F. ) ;
#119 = AXIS2_PLACEMENT_3D ( 'NONE', #67, #71, #144 ) ;
#120 = FACE_OUTER_BOUND ( 'NONE', #21, .T. ) ;
#121 = PRODUCT_DEFINITION ( 'UNKNOWN', '', #228, #132 ) ;
#122 = EDGE_LOOP ( 'NONE', ( #86 ) ) ;
#123 = DIRECTION ( 'NONE',  ( 3.491481338843133355E-15, -0.0000000000000000000, 1.000000000000000000 ) ) ;
#124 = DIRECTION ( 'NONE',  ( -3.491481338843133355E-15, 1.224646799147353207E-16, -1.000000000000000000 ) ) ;
#125 = CIRCLE ( 'NONE', #19, 0.4749999999999997558 ) ;
#126 = DIRECTION ( 'NONE',  ( 3.491481338843133355E-15, -0.0000000000000000000, 1.000000000000000000 ) ) ;
#127 = ADVANCED_FACE ( 'NONE', ( #34, #31 ), #12, .T. ) ;
#128 = PERSON_AND_ORGANIZATION_ROLE ( 'design_owner' ) ;
#129 = CC_DESIGN_DATE_AND_TIME_ASSIGNMENT ( #185, #173, ( #35 ) ) ;
#130 = DIRECTION ( 'NONE',  ( 3.491481338843133355E-15, -0.0000000000000000000, 1.000000000000000000 ) ) ;
#131 = DIRECTION ( 'NONE',  ( 3.491481338843133355E-15, -1.224646799147353207E-16, 1.000000000000000000 ) ) ;
#132 = DESIGN_CONTEXT ( 'detailed design', #217, 'design' ) ;
#133 = LOCAL_TIME ( 8, 14, 24.00000000000000000, #45 ) ;
#134 = ORIENTED_EDGE ( 'NONE', *, *, #203, .T. ) ;
#135 = PERSON_AND_ORGANIZATION_ROLE ( 'creator' ) ;
#136 = EDGE_LOOP ( 'NONE', ( #138 ) ) ;
#137 = COORDINATED_UNIVERSAL_TIME_OFFSET ( 1, 0, .AHEAD. ) ;
#138 = ORIENTED_EDGE ( 'NONE', *, *, #28, .F. ) ;
#139 = SECURITY_CLASSIFICATION_LEVEL ( 'unclassified' ) ;
#140 = ADVANCED_FACE ( 'NONE', ( #107 ), #32, .T. ) ;
#141 = DIRECTION ( 'NONE',  ( -3.491481338843133355E-15, 1.224646799147353207E-16, -1.000000000000000000 ) ) ;
#142 = DIRECTION ( 'NONE',  ( -4.275831445896958607E-31, -1.000000000000000000, -1.224646799147353207E-16 ) ) ;
#143 = APPROVAL_PERSON_ORGANIZATION ( #200, #63, #37 ) ;
#144 = DIRECTION ( 'NONE',  ( 0.0000000000000000000, 1.000000000000000000, 0.0000000000000000000 ) ) ;
#145 = FACE_OUTER_BOUND ( 'NONE', #106, .T. ) ;
#146 = CC_DESIGN_PERSON_AND_ORGANIZATION_ASSIGNMENT ( #15, #128, ( #97 ) ) ;
#147 = CARTESIAN_POINT ( 'NONE',  ( 1.316288464743861212E-13, -4.616918432785521081E-15, 37.69999999999999574 ) ) ;
#148 = CIRCLE ( 'NONE', #39, 1.499999999999996225 ) ;
#149 = VERTEX_POINT ( 'NONE', #95 ) ;
#150 = APPROVAL_DATE_TIME ( #75, #63 ) ;
#151 = AXIS2_PLACEMENT_3D ( 'NONE', #147, #141, #222 ) ;
#152 =( LENGTH_UNIT ( ) NAMED_UNIT ( * ) SI_UNIT ( .MILLI., .METRE. ) );
#153 = VERTEX_POINT ( 'NONE', #240 ) ;
#154 = CC_DESIGN_APPROVAL ( #42, ( #35 ) ) ;
#155 = PERSON_AND_ORGANIZATION ( #78, #234 ) ;
#156 = APPROVAL ( #96, 'UNSPECIFIED' ) ;
#157 = SHAPE_DEFINITION_REPRESENTATION ( #61, #175 ) ;
#158 = FACE_OUTER_BOUND ( 'NONE', #136, .T. ) ;
#159 = CARTESIAN_POINT ( 'NONE',  ( 5.124231004126231491E-15, 0.0000000000000000000, 1.467638090205028112 ) ) ;
#160 = ADVANCED_FACE ( 'NONE', ( #87, #120 ), #216, .T. ) ;
#161 = DIRECTION ( 'NONE',  ( 4.275831445896958607E-31, 1.000000000000000000, 1.224646799147353207E-16 ) ) ;
#162 = CARTESIAN_POINT ( 'NONE',  ( 1.326762908760390423E-13, -4.653657836759941941E-15, 38.00000000000000000 ) ) ;
#163 = LOCAL_TIME ( 8, 14, 24.00000000000000000, #113 ) ;
#164 = ADVANCED_FACE ( 'NONE', ( #145 ), #103, .F. ) ;
#165 = COORDINATED_UNIVERSAL_TIME_OFFSET ( 1, 0, .AHEAD. ) ;
#166 = CARTESIAN_POINT ( 'NONE',  ( 3.316907271900973927E-15, 0.0000000000000000000, 0.9499999999999992895 ) ) ;
#167 = CLOSED_SHELL ( 'NONE', ( #140, #127, #218 ) ) ;
#168 = LOCAL_TIME ( 8, 14, 24.00000000000000000, #165 ) ;
#169 = CARTESIAN_POINT ( 'NONE',  ( 0.4749999999999997558, 0.0000000000000000000, -1.658453635950487358E-15 ) ) ;
#170 = CC_DESIGN_PERSON_AND_ORGANIZATION_ASSIGNMENT ( #3, #186, ( #228 ) ) ;
#171 = DATE_AND_TIME ( #188, #163 ) ;
#172 = AXIS2_PLACEMENT_3D ( 'NONE', #220, #124, #161 ) ;
#173 = DATE_TIME_ROLE ( 'classification_date' ) ;
#174 = ADVANCED_FACE ( 'NONE', ( #50 ), #195, .F. ) ;
#175 = ADVANCED_BREP_SHAPE_REPRESENTATION ( '64366', ( #72, #233, #27 ), #5 ) ;
#176 = EDGE_LOOP ( 'NONE', ( #46 ) ) ;
#177 = DIRECTION ( 'NONE',  ( -4.275831445896958607E-31, -1.000000000000000000, -1.224646799147353207E-16 ) ) ;
#178 = ORIENTED_EDGE ( 'NONE', *, *, #28, .T. ) ;
#179 = DIRECTION ( 'NONE',  ( 1.000000000000000000, 0.0000000000000000000, -3.593058728314864803E-15 ) ) ;
#180 = CARTESIAN_POINT ( 'NONE',  ( 3.316907271900975899E-15, -1.373322751814975817E-16, 0.9499999999999997335 ) ) ;
#181 = DIRECTION ( 'NONE',  ( 1.000000000000000000, 0.0000000000000000000, 0.0000000000000000000 ) ) ;
#182 = VERTEX_POINT ( 'NONE', #16 ) ;
#183 = TOROIDAL_SURFACE ( 'NONE', #66, 2.474999999999999645, 2.000000000000000000 ) ;
#184 = DIRECTION ( 'NONE',  ( 1.000000000000000000, 0.0000000000000000000, -3.423796334164752505E-15 ) ) ;
#185 = DATE_AND_TIME ( #190, #133 ) ;
#186 = PERSON_AND_ORGANIZATION_ROLE ( 'design_supplier' ) ;
#187 = EDGE_CURVE ( 'NONE', #18, #18, #125, .T. ) ;
#188 = CALENDAR_DATE ( 2021, 10, 11 ) ;
#189 = EDGE_LOOP ( 'NONE', ( #84 ) ) ;
#190 = CALENDAR_DATE ( 2021, 10, 11 ) ;
#191 = APPROVAL_STATUS ( 'not_yet_approved' ) ;
#192 = ORIENTED_EDGE ( 'NONE', *, *, #230, .T. ) ;
#193 = LOCAL_TIME ( 8, 14, 24.00000000000000000, #2 ) ;
#194 = DIRECTION ( 'NONE',  ( 0.0000000000000000000, 1.000000000000000000, 0.0000000000000000000 ) ) ;
#195 = PLANE ( 'NONE',  #99 ) ;
#196 = FACE_OUTER_BOUND ( 'NONE', #189, .T. ) ;
#197 = AXIS2_PLACEMENT_3D ( 'NONE', #70, #47, #14 ) ;
#198 = CARTESIAN_POINT ( 'NONE',  ( 0.0000000000000000000, 0.0000000000000000000, 0.0000000000000000000 ) ) ;
#199 =( NAMED_UNIT ( * ) SI_UNIT ( $, .STERADIAN. ) SOLID_ANGLE_UNIT ( ) );
#200 = PERSON_AND_ORGANIZATION ( #78, #234 ) ;
#201 = CONICAL_SURFACE ( 'NONE', #81, 1.199999999999998845, 0.7853981633974450594 ) ;
#202 = VERTEX_POINT ( 'NONE', #60 ) ;
#203 = EDGE_CURVE ( 'NONE', #202, #202, #221, .T. ) ;
#204 = APPROVAL_ROLE ( '' ) ;
#205 = ORIENTED_EDGE ( 'NONE', *, *, #52, .F. ) ;
#206 = PRODUCT_RELATED_PRODUCT_CATEGORY ( 'detail', '', ( #97 ) ) ;
#207 = ORIENTED_EDGE ( 'NONE', *, *, #187, .T. ) ;
#208 = APPROVAL_DATE_TIME ( #117, #42 ) ;
#209 = EDGE_LOOP ( 'NONE', ( #23 ) ) ;
#210 = AXIS2_PLACEMENT_3D ( 'NONE', #159, #54, #179 ) ;
#211 = LOCAL_TIME ( 8, 14, 24.00000000000000000, #137 ) ;
#212 = PERSON_AND_ORGANIZATION ( #78, #234 ) ;
#213 = DIRECTION ( 'NONE',  ( -3.491481338843133355E-15, 1.224646799147353207E-16, -1.000000000000000000 ) ) ;
#214 = CIRCLE ( 'NONE', #119, 1.199999999999998845 ) ;
#215 = AXIS2_PLACEMENT_3D ( 'NONE', #166, #74, #184 ) ;
#216 = CYLINDRICAL_SURFACE ( 'NONE', #197, 1.499999999999996447 ) ;
#217 = APPLICATION_CONTEXT ( 'configuration controlled 3d designs of mechanical parts and assemblies' ) ;
#218 = ADVANCED_FACE ( 'NONE', ( #91 ), #73, .F. ) ;
#219 = FACE_BOUND ( 'NONE', #62, .T. ) ;
#220 = CARTESIAN_POINT ( 'NONE',  ( 1.326762908760390423E-13, 8.998558695971069014E-33, 38.00000000000000000 ) ) ;
#221 = CIRCLE ( 'NONE', #111, 0.4749999999999997558 ) ;
#222 = DIRECTION ( 'NONE',  ( 0.0000000000000000000, 1.000000000000000000, 0.0000000000000000000 ) ) ;
#223 = APPLICATION_PROTOCOL_DEFINITION ( 'international standard', 'config_control_design', 1994, #236 ) ;
#224 = DIRECTION ( 'NONE',  ( 1.000000000000000000, 0.0000000000000000000, -3.423796334164752505E-15 ) ) ;
#225 = DIRECTION ( 'NONE',  ( 3.491481338843133355E-15, -0.0000000000000000000, 1.000000000000000000 ) ) ;
#226 = UNCERTAINTY_MEASURE_WITH_UNIT (LENGTH_MEASURE( 1.000000000000000082E-05 ), #152, 'distance_accuracy_value', 'NONE');
#227 = CALENDAR_DATE ( 2021, 10, 11 ) ;
#228 = PRODUCT_DEFINITION_FORMATION_WITH_SPECIFIED_SOURCE ( 'ANY', '', #97, .NOT_KNOWN. ) ;
#229 = PERSON_AND_ORGANIZATION_ROLE ( 'creator' ) ;
#230 = EDGE_CURVE ( 'NONE', #38, #38, #148, .T. ) ;
#231 = ORIENTED_EDGE ( 'NONE', *, *, #232, .F. ) ;
#232 = EDGE_CURVE ( 'NONE', #153, #153, #100, .T. ) ;
#233 = MANIFOLD_SOLID_BREP ( 'Corps-Déplacer/Copier1[2]', #167 ) ;
#234 = ORGANIZATION ( 'UNSPECIFIED', 'UNSPECIFIED', '' ) ;
#235 = DIRECTION ( 'NONE',  ( 3.491481338843133355E-15, -1.224646799147353207E-16, 1.000000000000000000 ) ) ;
#236 = APPLICATION_CONTEXT ( 'configuration controlled 3d designs of mechanical parts and assemblies' ) ;
#237 = ORIENTED_EDGE ( 'NONE', *, *, #203, .F. ) ;
#238 = FACE_BOUND ( 'NONE', #114, .T. ) ;
#239 = CC_DESIGN_APPROVAL ( #156, ( #228 ) ) ;
#240 = CARTESIAN_POINT ( 'NONE',  ( 0.4750000000000030309, 0.0000000000000000000, 0.9499999999999976241 ) ) ;
#241 = DIRECTION ( 'NONE',  ( -4.275831445896958607E-31, -1.000000000000000000, -1.224646799147353207E-16 ) ) ;
#242 = CALENDAR_DATE ( 2021, 10, 11 ) ;
#243 = CONICAL_SURFACE ( 'NONE', #89, 1.499999999999996225, 0.2617993877991428575 ) ;
ENDSEC;
END-ISO-10303-21;
