ISO-10303-21;
HEADER;
FILE_DESCRIPTION (( 'STEP AP203' ),
    '1' );
FILE_NAME ('64365.step',
    '2021-11-10T07:14:23',
    ( '' ),
    ( '' ),
    'SwSTEP 2.0',
    'SolidWorks 2019',
    '' );
FILE_SCHEMA (( 'CONFIG_CONTROL_DESIGN' ));
ENDSEC;

DATA;
#1 = PLANE ( 'NONE',  #129 ) ;
#2 = CARTESIAN_POINT ( 'NONE',  ( 1.500000000000014211, 0.0000000000000000000, 5.125259613311412110 ) ) ;
#3 = VERTEX_POINT ( 'NONE', #185 ) ;
#4 = APPROVAL ( #62, 'UNSPECIFIED' ) ;
#5 = CALENDAR_DATE ( 2021, 10, 11 ) ;
#6 = AXIS2_PLACEMENT_3D ( 'NONE', #128, #71, #137 ) ;
#7 = CC_DESIGN_DATE_AND_TIME_ASSIGNMENT ( #115, #182, ( #155 ) ) ;
#8 = COORDINATED_UNIVERSAL_TIME_OFFSET ( 1, 0, .AHEAD. ) ;
#9 = EDGE_LOOP ( 'NONE', ( #178 ) ) ;
#10 = PLANE ( 'NONE',  #77 ) ;
#11 = CC_DESIGN_PERSON_AND_ORGANIZATION_ASSIGNMENT ( #173, #217, ( #179 ) ) ;
#12 = PLANE ( 'NONE',  #101 ) ;
#13 = CARTESIAN_POINT ( 'NONE',  ( 1.789474829660318727E-14, 0.0000000000000000000, 5.125259613311417439 ) ) ;
#14 = AXIS2_PLACEMENT_3D ( 'NONE', #13, #158, #200 ) ;
#15 = APPROVAL_PERSON_ORGANIZATION ( #229, #4, #117 ) ;
#16 = DIRECTION ( 'NONE',  ( 1.000000000000000000, 0.0000000000000000000, -3.491481338843133355E-15 ) ) ;
#17 = EDGE_CURVE ( 'NONE', #102, #102, #202, .T. ) ;
#18 = ORIENTED_EDGE ( 'NONE', *, *, #156, .T. ) ;
#19 = PERSON_AND_ORGANIZATION ( #45, #221 ) ;
#20 = CARTESIAN_POINT ( 'NONE',  ( 4.775082870241916577E-15, 0.0000000000000000000, 1.367638090205028023 ) ) ;
#21 = DIRECTION ( 'NONE',  ( 3.491481338843133355E-15, -0.0000000000000000000, 1.000000000000000000 ) ) ;
#22 = ADVANCED_FACE ( 'NONE', ( #39, #76 ), #56, .T. ) ;
#23 = EDGE_LOOP ( 'NONE', ( #18 ) ) ;
#24 = VERTEX_POINT ( 'NONE', #2 ) ;
#25 = EDGE_LOOP ( 'NONE', ( #190 ) ) ;
#26 = DIRECTION ( 'NONE',  ( 0.0000000000000000000, 1.000000000000000000, 0.0000000000000000000 ) ) ;
#27 = CIRCLE ( 'NONE', #184, 0.4931483474218604779 ) ;
#28 =( GEOMETRIC_REPRESENTATION_CONTEXT ( 3 ) GLOBAL_UNCERTAINTY_ASSIGNED_CONTEXT ( ( #196 ) ) GLOBAL_UNIT_ASSIGNED_CONTEXT ( ( #40, #207, #116 ) ) REPRESENTATION_CONTEXT ( 'NONE', 'WORKASPACE' ) );
#29 = APPROVAL_STATUS ( 'not_yet_approved' ) ;
#30 = ORIENTED_EDGE ( 'NONE', *, *, #170, .F. ) ;
#31 = AXIS2_PLACEMENT_3D ( 'NONE', #205, #97, #26 ) ;
#32 = DIRECTION ( 'NONE',  ( 4.275831445896958607E-31, 1.000000000000000000, 1.224646799147353207E-16 ) ) ;
#33 = DIRECTION ( 'NONE',  ( -4.275831445896958607E-31, -1.000000000000000000, -1.224646799147353207E-16 ) ) ;
#34 = PRODUCT_DEFINITION_SHAPE ( 'NONE', 'NONE',  #155 ) ;
#35 = ORIENTED_EDGE ( 'NONE', *, *, #170, .T. ) ;
#36 = APPLICATION_CONTEXT ( 'configuration controlled 3d designs of mechanical parts and assemblies' ) ;
#37 = DIRECTION ( 'NONE',  ( 1.000000000000000000, 0.0000000000000000000, -3.491481338843132961E-15 ) ) ;
#38 = TOROIDAL_SURFACE ( 'NONE', #230, 2.425000000000000711, 2.000000000000000000 ) ;
#39 = FACE_OUTER_BOUND ( 'NONE', #70, .T. ) ;
#40 =( LENGTH_UNIT ( ) NAMED_UNIT ( * ) SI_UNIT ( .MILLI., .METRE. ) );
#41 = VERTEX_POINT ( 'NONE', #99 ) ;
#42 = LOCAL_TIME ( 8, 14, 23.00000000000000000, #8 ) ;
#43 = DIRECTION ( 'NONE',  ( 3.491481338843133355E-15, -0.0000000000000000000, 1.000000000000000000 ) ) ;
#44 = EDGE_LOOP ( 'NONE', ( #87 ) ) ;
#45 = PERSON ( 'UNSPECIFIED', 'UNSPECIFIED', 'UNSPECIFIED', ('UNSPECIFIED'), ('UNSPECIFIED'), ('UNSPECIFIED') ) ;
#46 = CIRCLE ( 'NONE', #6, 0.4250000000000000444 ) ;
#47 = DATE_TIME_ROLE ( 'classification_date' ) ;
#48 = AXIS2_PLACEMENT_3D ( 'NONE', #72, #226, #127 ) ;
#49 = LOCAL_TIME ( 8, 14, 23.00000000000000000, #130 ) ;
#50 = PERSON_AND_ORGANIZATION ( #45, #221 ) ;
#51 = ORIENTED_EDGE ( 'NONE', *, *, #238, .F. ) ;
#52 = DIRECTION ( 'NONE',  ( 3.491481338843133355E-15, -0.0000000000000000000, 1.000000000000000000 ) ) ;
#53 = CONICAL_SURFACE ( 'NONE', #14, 1.499999999999996225, 0.2617993877991428020 ) ;
#54 = CIRCLE ( 'NONE', #225, 1.499999999999996225 ) ;
#55 = CYLINDRICAL_SURFACE ( 'NONE', #242, 0.4249999999999999334 ) ;
#56 = CYLINDRICAL_SURFACE ( 'NONE', #189, 1.499999999999996225 ) ;
#57 = MANIFOLD_SOLID_BREP ( 'Corps-Déplacer/Copier1[2]', #193 ) ;
#58 = CARTESIAN_POINT ( 'NONE',  ( 1.789474829660318727E-14, 0.0000000000000000000, 5.125259613311417439 ) ) ;
#59 = CARTESIAN_POINT ( 'NONE',  ( 1.326762908760390423E-13, 8.998558695971069014E-33, 38.00000000000000000 ) ) ;
#60 = CARTESIAN_POINT ( 'NONE',  ( 0.4250000000000029865, 0.0000000000000000000, 0.8499999999999976463 ) ) ;
#61 = ADVANCED_FACE ( 'NONE', ( #91, #240 ), #92, .T. ) ;
#62 = APPROVAL_STATUS ( 'not_yet_approved' ) ;
#63 = EDGE_LOOP ( 'NONE', ( #231 ) ) ;
#64 = PERSON_AND_ORGANIZATION ( #45, #221 ) ;
#65 = DATE_AND_TIME ( #154, #81 ) ;
#66 = CC_DESIGN_SECURITY_CLASSIFICATION ( #174, ( #179 ) ) ;
#67 = SHAPE_DEFINITION_REPRESENTATION ( #34, #162 ) ;
#68 = PERSON_AND_ORGANIZATION_ROLE ( 'design_supplier' ) ;
#69 = APPROVAL_PERSON_ORGANIZATION ( #19, #138, #134 ) ;
#70 = EDGE_LOOP ( 'NONE', ( #148 ) ) ;
#71 = DIRECTION ( 'NONE',  ( 3.491481338843133355E-15, -0.0000000000000000000, 1.000000000000000000 ) ) ;
#72 = CARTESIAN_POINT ( 'NONE',  ( 1.326762908760390423E-13, -4.653657836759941941E-15, 38.00000000000000000 ) ) ;
#73 = DIRECTION ( 'NONE',  ( 0.0000000000000000000, 1.000000000000000000, 0.0000000000000000000 ) ) ;
#74 = CC_DESIGN_PERSON_AND_ORGANIZATION_ASSIGNMENT ( #50, #68, ( #179 ) ) ;
#75 = FACE_OUTER_BOUND ( 'NONE', #208, .T. ) ;
#76 = FACE_OUTER_BOUND ( 'NONE', #168, .T. ) ;
#77 = AXIS2_PLACEMENT_3D ( 'NONE', #93, #176, #161 ) ;
#78 = VERTEX_POINT ( 'NONE', #232 ) ;
#79 = VERTEX_POINT ( 'NONE', #188 ) ;
#80 = PERSON_AND_ORGANIZATION ( #45, #221 ) ;
#81 = LOCAL_TIME ( 8, 14, 23.00000000000000000, #212 ) ;
#82 = DATE_AND_TIME ( #5, #194 ) ;
#83 = SECURITY_CLASSIFICATION_LEVEL ( 'unclassified' ) ;
#84 = ADVANCED_FACE ( 'NONE', ( #224, #94 ), #55, .T. ) ;
#85 = PRODUCT ( '64365', '64365', '', ( #206 ) ) ;
#86 = CALENDAR_DATE ( 2021, 10, 11 ) ;
#87 = ORIENTED_EDGE ( 'NONE', *, *, #142, .F. ) ;
#88 = APPLICATION_CONTEXT ( 'configuration controlled 3d designs of mechanical parts and assemblies' ) ;
#89 = DIRECTION ( 'NONE',  ( 3.491481338843133355E-15, -1.224646799147353207E-16, 1.000000000000000000 ) ) ;
#90 = CARTESIAN_POINT ( 'NONE',  ( 0.0000000000000000000, 0.0000000000000000000, 0.0000000000000000000 ) ) ;
#91 = FACE_OUTER_BOUND ( 'NONE', #63, .T. ) ;
#92 = CONICAL_SURFACE ( 'NONE', #236, 1.199999999999998845, 0.7853981633974450594 ) ;
#93 = CARTESIAN_POINT ( 'NONE',  ( 2.967759138016662563E-15, -1.228762462150241728E-16, 0.8499999999999997558 ) ) ;
#94 = FACE_OUTER_BOUND ( 'NONE', #218, .T. ) ;
#95 = DIRECTION ( 'NONE',  ( 1.000000000000000000, 0.0000000000000000000, -3.571489509364014096E-15 ) ) ;
#96 = CC_DESIGN_APPROVAL ( #138, ( #179 ) ) ;
#97 = DIRECTION ( 'NONE',  ( -3.491481338843133355E-15, 1.224646799147353207E-16, -1.000000000000000000 ) ) ;
#98 = EDGE_LOOP ( 'NONE', ( #187 ) ) ;
#99 = CARTESIAN_POINT ( 'NONE',  ( 0.4249999999999998224, 0.0000000000000000000, -1.483879569008331084E-15 ) ) ;
#100 = CC_DESIGN_PERSON_AND_ORGANIZATION_ASSIGNMENT ( #64, #209, ( #155 ) ) ;
#101 = AXIS2_PLACEMENT_3D ( 'NONE', #110, #89, #157 ) ;
#102 = VERTEX_POINT ( 'NONE', #146 ) ;
#103 = EDGE_LOOP ( 'NONE', ( #172 ) ) ;
#104 = EDGE_LOOP ( 'NONE', ( #120 ) ) ;
#105 = ADVANCED_FACE ( 'NONE', ( #141, #75 ), #38, .F. ) ;
#106 = AXIS2_PLACEMENT_3D ( 'NONE', #90, #111, #16 ) ;
#107 = DIRECTION ( 'NONE',  ( -3.491481338843133355E-15, 1.224646799147353207E-16, -1.000000000000000000 ) ) ;
#108 = AXIS2_PLACEMENT_3D ( 'NONE', #132, #43, #95 ) ;
#109 = CARTESIAN_POINT ( 'NONE',  ( 0.0000000000000000000, 0.0000000000000000000, 0.0000000000000000000 ) ) ;
#110 = CARTESIAN_POINT ( 'NONE',  ( -6.413803915257457113E-31, 2.249659577954772199E-32, -1.836986451539393076E-16 ) ) ;
#111 = DIRECTION ( 'NONE',  ( 3.491481338843133355E-15, -0.0000000000000000000, 1.000000000000000000 ) ) ;
#112 = AXIS2_PLACEMENT_3D ( 'NONE', #59, #107, #32 ) ;
#113 = LOCAL_TIME ( 8, 14, 23.00000000000000000, #237 ) ;
#114 = CARTESIAN_POINT ( 'NONE',  ( -1.786038389295302186E-30, 0.0000000000000000000, -5.115417256925931626E-16 ) ) ;
#115 = DATE_AND_TIME ( #204, #49 ) ;
#116 =( NAMED_UNIT ( * ) SI_UNIT ( $, .STERADIAN. ) SOLID_ANGLE_UNIT ( ) );
#117 = APPROVAL_ROLE ( '' ) ;
#118 = ORIENTED_EDGE ( 'NONE', *, *, #156, .F. ) ;
#119 = ADVANCED_FACE ( 'NONE', ( #139, #223 ), #53, .T. ) ;
#120 = ORIENTED_EDGE ( 'NONE', *, *, #17, .T. ) ;
#121 = AXIS2_PLACEMENT_3D ( 'NONE', #167, #183, #151 ) ;
#122 = DATE_AND_TIME ( #133, #113 ) ;
#123 = EDGE_LOOP ( 'NONE', ( #35 ) ) ;
#124 = PLANE ( 'NONE',  #112 ) ;
#125 = APPROVAL ( #29, 'UNSPECIFIED' ) ;
#126 = DIRECTION ( 'NONE',  ( 1.000000000000000000, 0.0000000000000000000, -3.491481338843132961E-15 ) ) ;
#127 = DIRECTION ( 'NONE',  ( 0.0000000000000000000, 1.000000000000000000, 0.0000000000000000000 ) ) ;
#128 = CARTESIAN_POINT ( 'NONE',  ( 2.967759138016660591E-15, 0.0000000000000000000, 0.8499999999999992006 ) ) ;
#129 = AXIS2_PLACEMENT_3D ( 'NONE', #203, #198, #33 ) ;
#130 = COORDINATED_UNIVERSAL_TIME_OFFSET ( 1, 0, .AHEAD. ) ;
#131 = APPLICATION_PROTOCOL_DEFINITION ( 'international standard', 'config_control_design', 1994, #88 ) ;
#132 = CARTESIAN_POINT ( 'NONE',  ( 2.967759138016660591E-15, 0.0000000000000000000, 0.8499999999999992006 ) ) ;
#133 = CALENDAR_DATE ( 2021, 10, 11 ) ;
#134 = APPROVAL_ROLE ( '' ) ;
#135 = APPROVAL_STATUS ( 'not_yet_approved' ) ;
#136 = APPROVAL_DATE_TIME ( #65, #138 ) ;
#137 = DIRECTION ( 'NONE',  ( 1.000000000000000000, 0.0000000000000000000, -3.571489509364014096E-15 ) ) ;
#138 = APPROVAL ( #135, 'UNSPECIFIED' ) ;
#139 = FACE_BOUND ( 'NONE', #103, .T. ) ;
#140 = CC_DESIGN_APPROVAL ( #4, ( #155 ) ) ;
#141 = FACE_OUTER_BOUND ( 'NONE', #98, .T. ) ;
#142 = EDGE_CURVE ( 'NONE', #24, #24, #54, .T. ) ;
#143 = DIRECTION ( 'NONE',  ( -3.491481338843133355E-15, 1.224646799147353207E-16, -1.000000000000000000 ) ) ;
#144 = DESIGN_CONTEXT ( 'detailed design', #36, 'design' ) ;
#145 = FACE_OUTER_BOUND ( 'NONE', #25, .T. ) ;
#146 = CARTESIAN_POINT ( 'NONE',  ( 1.326762908760390423E-13, 1.199999999999994182, 38.00000000000000000 ) ) ;
#147 = PERSON_AND_ORGANIZATION_ROLE ( 'design_owner' ) ;
#148 = ORIENTED_EDGE ( 'NONE', *, *, #234, .T. ) ;
#149 = CIRCLE ( 'NONE', #106, 0.4249999999999998224 ) ;
#150 = APPROVAL_DATE_TIME ( #82, #4 ) ;
#151 = DIRECTION ( 'NONE',  ( 1.000000000000000000, 0.0000000000000000000, 0.0000000000000000000 ) ) ;
#152 = PERSON_AND_ORGANIZATION_ROLE ( 'classification_officer' ) ;
#153 = CLOSED_SHELL ( 'NONE', ( #22, #61, #186, #105, #119, #191 ) ) ;
#154 = CALENDAR_DATE ( 2021, 10, 11 ) ;
#155 = PRODUCT_DEFINITION ( 'UNKNOWN', '', #179, #144 ) ;
#156 = EDGE_CURVE ( 'NONE', #228, #228, #46, .T. ) ;
#157 = DIRECTION ( 'NONE',  ( -4.275831445896958607E-31, -1.000000000000000000, -1.224646799147353207E-16 ) ) ;
#158 = DIRECTION ( 'NONE',  ( 3.491481338843133355E-15, -0.0000000000000000000, 1.000000000000000000 ) ) ;
#159 = CIRCLE ( 'NONE', #108, 0.4250000000000000444 ) ;
#160 = CARTESIAN_POINT ( 'NONE',  ( 1.326762908760390423E-13, -4.653657836759941941E-15, 38.00000000000000000 ) ) ;
#161 = DIRECTION ( 'NONE',  ( -4.275831445896958607E-31, -1.000000000000000000, -1.224646799147353207E-16 ) ) ;
#162 = ADVANCED_BREP_SHAPE_REPRESENTATION ( '64365', ( #220, #57, #121 ), #28 ) ;
#163 = DIRECTION ( 'NONE',  ( 3.491481338843133355E-15, -0.0000000000000000000, 1.000000000000000000 ) ) ;
#164 = CC_DESIGN_APPROVAL ( #125, ( #174 ) ) ;
#165 = DIRECTION ( 'NONE',  ( 1.000000000000000000, 0.0000000000000000000, -3.517650388662560691E-15 ) ) ;
#166 = CC_DESIGN_PERSON_AND_ORGANIZATION_ASSIGNMENT ( #171, #152, ( #174 ) ) ;
#167 = CARTESIAN_POINT ( 'NONE',  ( 0.0000000000000000000, 0.0000000000000000000, 0.0000000000000000000 ) ) ;
#168 = EDGE_LOOP ( 'NONE', ( #235 ) ) ;
#169 = COORDINATED_UNIVERSAL_TIME_OFFSET ( 1, 0, .AHEAD. ) ;
#170 = EDGE_CURVE ( 'NONE', #41, #41, #149, .T. ) ;
#171 = PERSON_AND_ORGANIZATION ( #45, #221 ) ;
#172 = ORIENTED_EDGE ( 'NONE', *, *, #238, .T. ) ;
#173 = PERSON_AND_ORGANIZATION ( #45, #221 ) ;
#174 = SECURITY_CLASSIFICATION ( '', '', #83 ) ;
#175 = FACE_OUTER_BOUND ( 'NONE', #9, .T. ) ;
#176 = DIRECTION ( 'NONE',  ( 3.491481338843133355E-15, -1.224646799147353207E-16, 1.000000000000000000 ) ) ;
#177 = FACE_OUTER_BOUND ( 'NONE', #23, .T. ) ;
#178 = ORIENTED_EDGE ( 'NONE', *, *, #241, .F. ) ;
#179 = PRODUCT_DEFINITION_FORMATION_WITH_SPECIFIED_SOURCE ( 'ANY', '', #85, .NOT_KNOWN. ) ;
#180 = PRODUCT_RELATED_PRODUCT_CATEGORY ( 'detail', '', ( #85 ) ) ;
#181 = DIRECTION ( 'NONE',  ( -3.491481338843133355E-15, 1.224646799147353207E-16, -1.000000000000000000 ) ) ;
#182 = DATE_TIME_ROLE ( 'creation_date' ) ;
#183 = DIRECTION ( 'NONE',  ( 0.0000000000000000000, 0.0000000000000000000, 1.000000000000000000 ) ) ;
#184 = AXIS2_PLACEMENT_3D ( 'NONE', #20, #21, #165 ) ;
#185 = CARTESIAN_POINT ( 'NONE',  ( 0.4931483474218652518, 0.0000000000000000000, 1.367638090205026247 ) ) ;
#186 = ADVANCED_FACE ( 'NONE', ( #145 ), #124, .F. ) ;
#187 = ORIENTED_EDGE ( 'NONE', *, *, #241, .T. ) ;
#188 = CARTESIAN_POINT ( 'NONE',  ( 0.4250000000000029865, 0.0000000000000000000, 0.8499999999999976463 ) ) ;
#189 = AXIS2_PLACEMENT_3D ( 'NONE', #109, #143, #243 ) ;
#190 = ORIENTED_EDGE ( 'NONE', *, *, #17, .F. ) ;
#191 = ADVANCED_FACE ( 'NONE', ( #175 ), #10, .F. ) ;
#192 = APPROVAL_ROLE ( '' ) ;
#193 = CLOSED_SHELL ( 'NONE', ( #213, #84, #199 ) ) ;
#194 = LOCAL_TIME ( 8, 14, 23.00000000000000000, #169 ) ;
#195 = APPROVAL_DATE_TIME ( #122, #125 ) ;
#196 = UNCERTAINTY_MEASURE_WITH_UNIT (LENGTH_MEASURE( 1.000000000000000082E-05 ), #40, 'distance_accuracy_value', 'NONE');
#197 = CARTESIAN_POINT ( 'NONE',  ( 2.967759138016661380E-15, 0.0000000000000000000, 0.8499999999999994227 ) ) ;
#198 = DIRECTION ( 'NONE',  ( 3.491481338843133355E-15, -1.224646799147353207E-16, 1.000000000000000000 ) ) ;
#199 = ADVANCED_FACE ( 'NONE', ( #219 ), #12, .F. ) ;
#200 = DIRECTION ( 'NONE',  ( 1.000000000000000000, 0.0000000000000000000, -3.469446951953622866E-15 ) ) ;
#201 = DIRECTION ( 'NONE',  ( 3.491481338843133355E-15, -0.0000000000000000000, 1.000000000000000000 ) ) ;
#202 = CIRCLE ( 'NONE', #48, 1.199999999999998845 ) ;
#203 = CARTESIAN_POINT ( 'NONE',  ( 2.967759138016662563E-15, -1.228762462150241728E-16, 0.8499999999999997558 ) ) ;
#204 = CALENDAR_DATE ( 2021, 10, 11 ) ;
#205 = CARTESIAN_POINT ( 'NONE',  ( 1.316288464743861212E-13, -4.616918432785521081E-15, 37.69999999999999574 ) ) ;
#206 = MECHANICAL_CONTEXT ( 'NONE', #88, 'mechanical' ) ;
#207 =( NAMED_UNIT ( * ) PLANE_ANGLE_UNIT ( ) SI_UNIT ( $, .RADIAN. ) );
#208 = EDGE_LOOP ( 'NONE', ( #51 ) ) ;
#209 = PERSON_AND_ORGANIZATION_ROLE ( 'creator' ) ;
#210 = CC_DESIGN_DATE_AND_TIME_ASSIGNMENT ( #214, #47, ( #174 ) ) ;
#211 = CIRCLE ( 'NONE', #31, 1.499999999999998446 ) ;
#212 = COORDINATED_UNIVERSAL_TIME_OFFSET ( 1, 0, .AHEAD. ) ;
#213 = ADVANCED_FACE ( 'NONE', ( #177 ), #1, .T. ) ;
#214 = DATE_AND_TIME ( #86, #42 ) ;
#215 = PERSON_AND_ORGANIZATION ( #45, #221 ) ;
#216 = APPROVAL_PERSON_ORGANIZATION ( #215, #125, #192 ) ;
#217 = PERSON_AND_ORGANIZATION_ROLE ( 'creator' ) ;
#218 = EDGE_LOOP ( 'NONE', ( #118 ) ) ;
#219 = FACE_OUTER_BOUND ( 'NONE', #239, .T. ) ;
#220 = MANIFOLD_SOLID_BREP ( 'Corps-Déplacer/Copier1[1]', #153 ) ;
#221 = ORGANIZATION ( 'UNSPECIFIED', 'UNSPECIFIED', '' ) ;
#222 = DIRECTION ( 'NONE',  ( 1.000000000000000000, 0.0000000000000000000, -3.469446951953622866E-15 ) ) ;
#223 = FACE_OUTER_BOUND ( 'NONE', #44, .T. ) ;
#224 = FACE_OUTER_BOUND ( 'NONE', #123, .T. ) ;
#225 = AXIS2_PLACEMENT_3D ( 'NONE', #58, #201, #222 ) ;
#226 = DIRECTION ( 'NONE',  ( -3.491481338843133355E-15, 1.224646799147353207E-16, -1.000000000000000000 ) ) ;
#227 = CC_DESIGN_PERSON_AND_ORGANIZATION_ASSIGNMENT ( #80, #147, ( #85 ) ) ;
#228 = VERTEX_POINT ( 'NONE', #60 ) ;
#229 = PERSON_AND_ORGANIZATION ( #45, #221 ) ;
#230 = AXIS2_PLACEMENT_3D ( 'NONE', #197, #52, #37 ) ;
#231 = ORIENTED_EDGE ( 'NONE', *, *, #234, .F. ) ;
#232 = CARTESIAN_POINT ( 'NONE',  ( 1.316288464743861212E-13, 1.499999999999994005, 37.69999999999999574 ) ) ;
#233 = APPLICATION_PROTOCOL_DEFINITION ( 'international standard', 'config_control_design', 1994, #36 ) ;
#234 = EDGE_CURVE ( 'NONE', #78, #78, #211, .T. ) ;
#235 = ORIENTED_EDGE ( 'NONE', *, *, #142, .T. ) ;
#236 = AXIS2_PLACEMENT_3D ( 'NONE', #160, #181, #73 ) ;
#237 = COORDINATED_UNIVERSAL_TIME_OFFSET ( 1, 0, .AHEAD. ) ;
#238 = EDGE_CURVE ( 'NONE', #3, #3, #27, .T. ) ;
#239 = EDGE_LOOP ( 'NONE', ( #30 ) ) ;
#240 = FACE_BOUND ( 'NONE', #104, .T. ) ;
#241 = EDGE_CURVE ( 'NONE', #79, #79, #159, .T. ) ;
#242 = AXIS2_PLACEMENT_3D ( 'NONE', #114, #163, #126 ) ;
#243 = DIRECTION ( 'NONE',  ( 4.275831445896958607E-31, 1.000000000000000000, 1.224646799147353207E-16 ) ) ;
ENDSEC;
END-ISO-10303-21;
