ISO-10303-21;
HEADER;
FILE_DESCRIPTION (( 'STEP AP203' ),
    '1' );
FILE_NAME ('64364.step',
    '2021-11-10T07:14:22',
    ( '' ),
    ( '' ),
    'SwSTEP 2.0',
    'SolidWorks 2019',
    '' );
FILE_SCHEMA (( 'CONFIG_CONTROL_DESIGN' ));
ENDSEC;

DATA;
#1 = CARTESIAN_POINT ( 'NONE',  ( -6.413803915257457113E-31, 2.249659577954772199E-32, -1.836986451539393076E-16 ) ) ;
#2 = EDGE_LOOP ( 'NONE', ( #11 ) ) ;
#3 = CARTESIAN_POINT ( 'NONE',  ( 0.4431483474218643748, 0.0000000000000000000, 1.267638090205026602 ) ) ;
#4 = UNCERTAINTY_MEASURE_WITH_UNIT (LENGTH_MEASURE( 1.000000000000000082E-05 ), #41, 'distance_accuracy_value', 'NONE');
#5 = CARTESIAN_POINT ( 'NONE',  ( 1.326762908760390423E-13, 1.199999999999994182, 38.00000000000000000 ) ) ;
#6 = APPROVAL_DATE_TIME ( #86, #63 ) ;
#7 = APPROVAL_STATUS ( 'not_yet_approved' ) ;
#8 = PERSON_AND_ORGANIZATION ( #87, #40 ) ;
#9 = CIRCLE ( 'NONE', #124, 0.3749999999999998890 ) ;
#10 = COORDINATED_UNIVERSAL_TIME_OFFSET ( 1, 0, .AHEAD. ) ;
#11 = ORIENTED_EDGE ( 'NONE', *, *, #34, .F. ) ;
#12 = DIRECTION ( 'NONE',  ( -3.491481338843133355E-15, 1.224646799147353207E-16, -1.000000000000000000 ) ) ;
#13 = ADVANCED_FACE ( 'NONE', ( #165, #185 ), #55, .T. ) ;
#14 = DIRECTION ( 'NONE',  ( 0.0000000000000000000, 1.000000000000000000, 0.0000000000000000000 ) ) ;
#15 = DIRECTION ( 'NONE',  ( 3.491481338843133355E-15, -0.0000000000000000000, 1.000000000000000000 ) ) ;
#16 = AXIS2_PLACEMENT_3D ( 'NONE', #45, #241, #171 ) ;
#17 = VERTEX_POINT ( 'NONE', #3 ) ;
#18 = EDGE_LOOP ( 'NONE', ( #168 ) ) ;
#19 = PLANE ( 'NONE',  #35 ) ;
#20 = DIRECTION ( 'NONE',  ( 3.491481338843133355E-15, -0.0000000000000000000, 1.000000000000000000 ) ) ;
#21 = MECHANICAL_CONTEXT ( 'NONE', #229, 'mechanical' ) ;
#22 = EDGE_LOOP ( 'NONE', ( #188 ) ) ;
#23 = DIRECTION ( 'NONE',  ( 3.491481338843133355E-15, -0.0000000000000000000, 1.000000000000000000 ) ) ;
#24 = ORIENTED_EDGE ( 'NONE', *, *, #116, .F. ) ;
#25 = EDGE_LOOP ( 'NONE', ( #131 ) ) ;
#26 = EDGE_CURVE ( 'NONE', #138, #138, #90, .T. ) ;
#27 = DATE_AND_TIME ( #161, #50 ) ;
#28 = ADVANCED_FACE ( 'NONE', ( #110, #128 ), #109, .T. ) ;
#29 = CC_DESIGN_APPROVAL ( #89, ( #235 ) ) ;
#30 = PERSON_AND_ORGANIZATION_ROLE ( 'design_owner' ) ;
#31 = CALENDAR_DATE ( 2021, 10, 11 ) ;
#32 = COORDINATED_UNIVERSAL_TIME_OFFSET ( 1, 0, .AHEAD. ) ;
#33 = CLOSED_SHELL ( 'NONE', ( #13, #28, #243, #48, #182, #72 ) ) ;
#34 = EDGE_CURVE ( 'NONE', #134, #134, #85, .T. ) ;
#35 = AXIS2_PLACEMENT_3D ( 'NONE', #172, #191, #39 ) ;
#36 = DIRECTION ( 'NONE',  ( 1.000000000000000000, 0.0000000000000000000, -3.469446951953615372E-15 ) ) ;
#37 = CARTESIAN_POINT ( 'NONE',  ( 1.316288464743861212E-13, 1.499999999999994005, 37.69999999999999574 ) ) ;
#38 = DIRECTION ( 'NONE',  ( -4.275831445896958607E-31, -1.000000000000000000, -1.224646799147353207E-16 ) ) ;
#39 = DIRECTION ( 'NONE',  ( -4.275831445896958607E-31, -1.000000000000000000, -1.224646799147353207E-16 ) ) ;
#40 = ORGANIZATION ( 'UNSPECIFIED', 'UNSPECIFIED', '' ) ;
#41 =( LENGTH_UNIT ( ) NAMED_UNIT ( * ) SI_UNIT ( .MILLI., .METRE. ) );
#42 = DIRECTION ( 'NONE',  ( 3.491481338843133355E-15, -0.0000000000000000000, 1.000000000000000000 ) ) ;
#43 = DESIGN_CONTEXT ( 'detailed design', #236, 'design' ) ;
#44 = VERTEX_POINT ( 'NONE', #37 ) ;
#45 = CARTESIAN_POINT ( 'NONE',  ( 1.326762908760390423E-13, 8.998558695971069014E-33, 38.00000000000000000 ) ) ;
#46 = PRODUCT_DEFINITION_SHAPE ( 'NONE', 'NONE',  #200 ) ;
#47 = CIRCLE ( 'NONE', #162, 1.499999999999998446 ) ;
#48 = ADVANCED_FACE ( 'NONE', ( #111, #94 ), #96, .F. ) ;
#49 = CALENDAR_DATE ( 2021, 10, 11 ) ;
#50 = LOCAL_TIME ( 8, 14, 22.00000000000000000, #123 ) ;
#51 = SECURITY_CLASSIFICATION_LEVEL ( 'unclassified' ) ;
#52 = COORDINATED_UNIVERSAL_TIME_OFFSET ( 1, 0, .AHEAD. ) ;
#53 = AXIS2_PLACEMENT_3D ( 'NONE', #239, #42, #242 ) ;
#54 = EDGE_LOOP ( 'NONE', ( #167 ) ) ;
#55 = CYLINDRICAL_SURFACE ( 'NONE', #202, 1.499999999999996225 ) ;
#56 = AXIS2_PLACEMENT_3D ( 'NONE', #1, #208, #175 ) ;
#57 = ORIENTED_EDGE ( 'NONE', *, *, #159, .T. ) ;
#58 = DIRECTION ( 'NONE',  ( 1.000000000000000000, 0.0000000000000000000, -3.491481338843133355E-15 ) ) ;
#59 = CARTESIAN_POINT ( 'NONE',  ( 4.425934736357604820E-15, 0.0000000000000000000, 1.267638090205028156 ) ) ;
#60 = VERTEX_POINT ( 'NONE', #193 ) ;
#61 = FACE_OUTER_BOUND ( 'NONE', #174, .T. ) ;
#62 = ORIENTED_EDGE ( 'NONE', *, *, #149, .F. ) ;
#63 = APPROVAL ( #142, 'UNSPECIFIED' ) ;
#64 = FACE_OUTER_BOUND ( 'NONE', #25, .T. ) ;
#65 = ORIENTED_EDGE ( 'NONE', *, *, #133, .T. ) ;
#66 = DATE_AND_TIME ( #106, #71 ) ;
#67 = PERSON_AND_ORGANIZATION_ROLE ( 'creator' ) ;
#68 = PERSON_AND_ORGANIZATION ( #87, #40 ) ;
#69 = ADVANCED_FACE ( 'NONE', ( #61, #206 ), #76, .T. ) ;
#70 = EDGE_LOOP ( 'NONE', ( #119 ) ) ;
#71 = LOCAL_TIME ( 8, 14, 22.00000000000000000, #52 ) ;
#72 = ADVANCED_FACE ( 'NONE', ( #132 ), #186, .F. ) ;
#73 = FACE_BOUND ( 'NONE', #99, .T. ) ;
#74 = DIRECTION ( 'NONE',  ( -3.491481338843133355E-15, 1.224646799147353207E-16, -1.000000000000000000 ) ) ;
#75 = AXIS2_PLACEMENT_3D ( 'NONE', #118, #100, #205 ) ;
#76 = CYLINDRICAL_SURFACE ( 'NONE', #233, 0.3749999999999998890 ) ;
#77 = DIRECTION ( 'NONE',  ( -3.491481338843133355E-15, 1.224646799147353207E-16, -1.000000000000000000 ) ) ;
#78 = CC_DESIGN_PERSON_AND_ORGANIZATION_ASSIGNMENT ( #143, #67, ( #200 ) ) ;
#79 = CC_DESIGN_APPROVAL ( #177, ( #200 ) ) ;
#80 = FACE_OUTER_BOUND ( 'NONE', #22, .T. ) ;
#81 = ORIENTED_EDGE ( 'NONE', *, *, #159, .F. ) ;
#82 =( NAMED_UNIT ( * ) SI_UNIT ( $, .STERADIAN. ) SOLID_ANGLE_UNIT ( ) );
#83 = ORIENTED_EDGE ( 'NONE', *, *, #149, .T. ) ;
#84 = SHAPE_DEFINITION_REPRESENTATION ( #46, #147 ) ;
#85 = CIRCLE ( 'NONE', #101, 0.3749999999999998890 ) ;
#86 = DATE_AND_TIME ( #144, #197 ) ;
#87 = PERSON ( 'UNSPECIFIED', 'UNSPECIFIED', 'UNSPECIFIED', ('UNSPECIFIED'), ('UNSPECIFIED'), ('UNSPECIFIED') ) ;
#88 = APPROVAL_ROLE ( '' ) ;
#89 = APPROVAL ( #7, 'UNSPECIFIED' ) ;
#90 = CIRCLE ( 'NONE', #170, 1.199999999999998845 ) ;
#91 = PERSON_AND_ORGANIZATION ( #87, #40 ) ;
#92 = LOCAL_TIME ( 8, 14, 22.00000000000000000, #10 ) ;
#93 = CARTESIAN_POINT ( 'NONE',  ( 0.0000000000000000000, 0.0000000000000000000, 0.0000000000000000000 ) ) ;
#94 = FACE_OUTER_BOUND ( 'NONE', #192, .T. ) ;
#95 = CARTESIAN_POINT ( 'NONE',  ( 2.618611004132348833E-15, -1.084202172485507269E-16, 0.7499999999999996669 ) ) ;
#96 = TOROIDAL_SURFACE ( 'NONE', #53, 2.375000000000000000, 2.000000000000000000 ) ;
#97 = FACE_OUTER_BOUND ( 'NONE', #70, .T. ) ;
#98 = CARTESIAN_POINT ( 'NONE',  ( 2.618611004132347255E-15, 0.0000000000000000000, 0.7499999999999992228 ) ) ;
#99 = EDGE_LOOP ( 'NONE', ( #83 ) ) ;
#100 = DIRECTION ( 'NONE',  ( 3.491481338843133355E-15, -0.0000000000000000000, 1.000000000000000000 ) ) ;
#101 = AXIS2_PLACEMENT_3D ( 'NONE', #148, #204, #36 ) ;
#102 = PLANE ( 'NONE',  #16 ) ;
#103 = EDGE_LOOP ( 'NONE', ( #81 ) ) ;
#104 = APPLICATION_PROTOCOL_DEFINITION ( 'international standard', 'config_control_design', 1994, #236 ) ;
#105 = CC_DESIGN_APPROVAL ( #63, ( #228 ) ) ;
#106 = CALENDAR_DATE ( 2021, 10, 11 ) ;
#107 = CC_DESIGN_PERSON_AND_ORGANIZATION_ASSIGNMENT ( #91, #217, ( #235 ) ) ;
#108 = APPROVAL_ROLE ( '' ) ;
#109 = CONICAL_SURFACE ( 'NONE', #220, 1.199999999999998845, 0.7853981633974450594 ) ;
#110 = FACE_OUTER_BOUND ( 'NONE', #103, .T. ) ;
#111 = FACE_OUTER_BOUND ( 'NONE', #153, .T. ) ;
#112 = DIRECTION ( 'NONE',  ( 3.491481338843133355E-15, -0.0000000000000000000, 1.000000000000000000 ) ) ;
#113 = DIRECTION ( 'NONE',  ( 1.000000000000000000, 0.0000000000000000000, -3.469446951953615372E-15 ) ) ;
#114 = DIRECTION ( 'NONE',  ( 1.000000000000000000, 0.0000000000000000000, -3.425225548759049870E-15 ) ) ;
#115 = AXIS2_PLACEMENT_3D ( 'NONE', #98, #15, #113 ) ;
#116 = EDGE_CURVE ( 'NONE', #121, #121, #129, .T. ) ;
#117 = PERSON_AND_ORGANIZATION ( #87, #40 ) ;
#118 = CARTESIAN_POINT ( 'NONE',  ( 1.819711945023095664E-14, 0.0000000000000000000, 5.211862153689867938 ) ) ;
#119 = ORIENTED_EDGE ( 'NONE', *, *, #133, .F. ) ;
#120 = AXIS2_PLACEMENT_3D ( 'NONE', #59, #20, #114 ) ;
#121 = VERTEX_POINT ( 'NONE', #210 ) ;
#122 = APPROVAL_DATE_TIME ( #199, #177 ) ;
#123 = COORDINATED_UNIVERSAL_TIME_OFFSET ( 1, 0, .AHEAD. ) ;
#124 = AXIS2_PLACEMENT_3D ( 'NONE', #169, #223, #58 ) ;
#125 = APPROVAL_ROLE ( '' ) ;
#126 = CARTESIAN_POINT ( 'NONE',  ( 1.326762908760390423E-13, -4.653657836759941941E-15, 38.00000000000000000 ) ) ;
#127 = CC_DESIGN_DATE_AND_TIME_ASSIGNMENT ( #214, #163, ( #235 ) ) ;
#128 = FACE_BOUND ( 'NONE', #18, .T. ) ;
#129 = CIRCLE ( 'NONE', #115, 0.3749999999999998890 ) ;
#130 = VERTEX_POINT ( 'NONE', #230 ) ;
#131 = ORIENTED_EDGE ( 'NONE', *, *, #184, .F. ) ;
#132 = FACE_OUTER_BOUND ( 'NONE', #2, .T. ) ;
#133 = EDGE_CURVE ( 'NONE', #60, #60, #9, .T. ) ;
#134 = VERTEX_POINT ( 'NONE', #152 ) ;
#135 = APPROVAL_PERSON_ORGANIZATION ( #160, #89, #88 ) ;
#136 = MANIFOLD_SOLID_BREP ( 'Corps-Déplacer/Copier1[2]', #176 ) ;
#137 = CARTESIAN_POINT ( 'NONE',  ( 1.819711945023095664E-14, 0.0000000000000000000, 5.211862153689867938 ) ) ;
#138 = VERTEX_POINT ( 'NONE', #5 ) ;
#139 = APPROVAL_PERSON_ORGANIZATION ( #8, #177, #108 ) ;
#140 =( GEOMETRIC_REPRESENTATION_CONTEXT ( 3 ) GLOBAL_UNCERTAINTY_ASSIGNED_CONTEXT ( ( #4 ) ) GLOBAL_UNIT_ASSIGNED_CONTEXT ( ( #41, #187, #82 ) ) REPRESENTATION_CONTEXT ( 'NONE', 'WORKASPACE' ) );
#141 = PERSON_AND_ORGANIZATION_ROLE ( 'design_supplier' ) ;
#142 = APPROVAL_STATUS ( 'not_yet_approved' ) ;
#143 = PERSON_AND_ORGANIZATION ( #87, #40 ) ;
#144 = CALENDAR_DATE ( 2021, 10, 11 ) ;
#145 = AXIS2_PLACEMENT_3D ( 'NONE', #173, #155, #157 ) ;
#146 = ADVANCED_FACE ( 'NONE', ( #189 ), #19, .T. ) ;
#147 = ADVANCED_BREP_SHAPE_REPRESENTATION ( '64364', ( #218, #136, #145 ), #140 ) ;
#148 = CARTESIAN_POINT ( 'NONE',  ( 2.618611004132347255E-15, 0.0000000000000000000, 0.7499999999999992228 ) ) ;
#149 = EDGE_CURVE ( 'NONE', #17, #17, #150, .T. ) ;
#150 = CIRCLE ( 'NONE', #120, 0.4431483474218599339 ) ;
#151 = CARTESIAN_POINT ( 'NONE',  ( -1.786038389295302186E-30, 0.0000000000000000000, -5.115417256925931626E-16 ) ) ;
#152 = CARTESIAN_POINT ( 'NONE',  ( 0.3750000000000024980, 0.0000000000000000000, 0.7499999999999980016 ) ) ;
#153 = EDGE_LOOP ( 'NONE', ( #212 ) ) ;
#154 = DIRECTION ( 'NONE',  ( 1.000000000000000000, 0.0000000000000000000, -3.491481338843133355E-15 ) ) ;
#155 = DIRECTION ( 'NONE',  ( 0.0000000000000000000, 0.0000000000000000000, 1.000000000000000000 ) ) ;
#156 = CC_DESIGN_PERSON_AND_ORGANIZATION_ASSIGNMENT ( #180, #141, ( #228 ) ) ;
#157 = DIRECTION ( 'NONE',  ( 1.000000000000000000, 0.0000000000000000000, 0.0000000000000000000 ) ) ;
#158 = PRODUCT ( '64364', '64364', '', ( #21 ) ) ;
#159 = EDGE_CURVE ( 'NONE', #44, #44, #47, .T. ) ;
#160 = PERSON_AND_ORGANIZATION ( #87, #40 ) ;
#161 = CALENDAR_DATE ( 2021, 10, 11 ) ;
#162 = AXIS2_PLACEMENT_3D ( 'NONE', #240, #77, #207 ) ;
#163 = DATE_TIME_ROLE ( 'classification_date' ) ;
#164 = CC_DESIGN_SECURITY_CLASSIFICATION ( #235, ( #228 ) ) ;
#165 = FACE_OUTER_BOUND ( 'NONE', #222, .T. ) ;
#166 = CARTESIAN_POINT ( 'NONE',  ( 1.326762908760390423E-13, -4.653657836759941941E-15, 38.00000000000000000 ) ) ;
#167 = ORIENTED_EDGE ( 'NONE', *, *, #184, .T. ) ;
#168 = ORIENTED_EDGE ( 'NONE', *, *, #26, .T. ) ;
#169 = CARTESIAN_POINT ( 'NONE',  ( 0.0000000000000000000, 0.0000000000000000000, 0.0000000000000000000 ) ) ;
#170 = AXIS2_PLACEMENT_3D ( 'NONE', #166, #219, #237 ) ;
#171 = DIRECTION ( 'NONE',  ( 4.275831445896958607E-31, 1.000000000000000000, 1.224646799147353207E-16 ) ) ;
#172 = CARTESIAN_POINT ( 'NONE',  ( 2.618611004132348833E-15, -1.084202172485507269E-16, 0.7499999999999996669 ) ) ;
#173 = CARTESIAN_POINT ( 'NONE',  ( 0.0000000000000000000, 0.0000000000000000000, 0.0000000000000000000 ) ) ;
#174 = EDGE_LOOP ( 'NONE', ( #65 ) ) ;
#175 = DIRECTION ( 'NONE',  ( -4.275831445896958607E-31, -1.000000000000000000, -1.224646799147353207E-16 ) ) ;
#176 = CLOSED_SHELL ( 'NONE', ( #146, #69, #227 ) ) ;
#177 = APPROVAL ( #201, 'UNSPECIFIED' ) ;
#178 = PLANE ( 'NONE',  #56 ) ;
#179 = LOCAL_TIME ( 8, 14, 22.00000000000000000, #215 ) ;
#180 = PERSON_AND_ORGANIZATION ( #87, #40 ) ;
#181 = PERSON_AND_ORGANIZATION ( #87, #40 ) ;
#182 = ADVANCED_FACE ( 'NONE', ( #73, #64 ), #183, .T. ) ;
#183 = CONICAL_SURFACE ( 'NONE', #75, 1.499999999999996225, 0.2617993877991428575 ) ;
#184 = EDGE_CURVE ( 'NONE', #130, #130, #190, .T. ) ;
#185 = FACE_OUTER_BOUND ( 'NONE', #54, .T. ) ;
#186 = PLANE ( 'NONE',  #231 ) ;
#187 =( NAMED_UNIT ( * ) PLANE_ANGLE_UNIT ( ) SI_UNIT ( $, .RADIAN. ) );
#188 = ORIENTED_EDGE ( 'NONE', *, *, #26, .F. ) ;
#189 = FACE_OUTER_BOUND ( 'NONE', #195, .T. ) ;
#190 = CIRCLE ( 'NONE', #213, 1.499999999999996225 ) ;
#191 = DIRECTION ( 'NONE',  ( 3.491481338843133355E-15, -1.224646799147353207E-16, 1.000000000000000000 ) ) ;
#192 = EDGE_LOOP ( 'NONE', ( #62 ) ) ;
#193 = CARTESIAN_POINT ( 'NONE',  ( 0.3749999999999998890, 0.0000000000000000000, -1.309305502066174614E-15 ) ) ;
#194 = CC_DESIGN_DATE_AND_TIME_ASSIGNMENT ( #66, #196, ( #200 ) ) ;
#195 = EDGE_LOOP ( 'NONE', ( #225 ) ) ;
#196 = DATE_TIME_ROLE ( 'creation_date' ) ;
#197 = LOCAL_TIME ( 8, 14, 22.00000000000000000, #32 ) ;
#198 = PERSON_AND_ORGANIZATION_ROLE ( 'creator' ) ;
#199 = DATE_AND_TIME ( #49, #179 ) ;
#200 = PRODUCT_DEFINITION ( 'UNKNOWN', '', #228, #43 ) ;
#201 = APPROVAL_STATUS ( 'not_yet_approved' ) ;
#202 = AXIS2_PLACEMENT_3D ( 'NONE', #93, #12, #203 ) ;
#203 = DIRECTION ( 'NONE',  ( 4.275831445896958607E-31, 1.000000000000000000, 1.224646799147353207E-16 ) ) ;
#204 = DIRECTION ( 'NONE',  ( 3.491481338843133355E-15, -0.0000000000000000000, 1.000000000000000000 ) ) ;
#205 = DIRECTION ( 'NONE',  ( 1.000000000000000000, 0.0000000000000000000, -3.469446951953622866E-15 ) ) ;
#206 = FACE_OUTER_BOUND ( 'NONE', #221, .T. ) ;
#207 = DIRECTION ( 'NONE',  ( 0.0000000000000000000, 1.000000000000000000, 0.0000000000000000000 ) ) ;
#208 = DIRECTION ( 'NONE',  ( 3.491481338843133355E-15, -1.224646799147353207E-16, 1.000000000000000000 ) ) ;
#209 = APPROVAL_PERSON_ORGANIZATION ( #181, #63, #125 ) ;
#210 = CARTESIAN_POINT ( 'NONE',  ( 0.3750000000000024980, 0.0000000000000000000, 0.7499999999999980016 ) ) ;
#211 = DIRECTION ( 'NONE',  ( 1.000000000000000000, 0.0000000000000000000, -3.469446951953622866E-15 ) ) ;
#212 = ORIENTED_EDGE ( 'NONE', *, *, #34, .T. ) ;
#213 = AXIS2_PLACEMENT_3D ( 'NONE', #137, #23, #211 ) ;
#214 = DATE_AND_TIME ( #31, #92 ) ;
#215 = COORDINATED_UNIVERSAL_TIME_OFFSET ( 1, 0, .AHEAD. ) ;
#216 = CC_DESIGN_PERSON_AND_ORGANIZATION_ASSIGNMENT ( #117, #30, ( #158 ) ) ;
#217 = PERSON_AND_ORGANIZATION_ROLE ( 'classification_officer' ) ;
#218 = MANIFOLD_SOLID_BREP ( 'Corps-Déplacer/Copier1[1]', #33 ) ;
#219 = DIRECTION ( 'NONE',  ( -3.491481338843133355E-15, 1.224646799147353207E-16, -1.000000000000000000 ) ) ;
#220 = AXIS2_PLACEMENT_3D ( 'NONE', #126, #74, #14 ) ;
#221 = EDGE_LOOP ( 'NONE', ( #24 ) ) ;
#222 = EDGE_LOOP ( 'NONE', ( #57 ) ) ;
#223 = DIRECTION ( 'NONE',  ( 3.491481338843133355E-15, -0.0000000000000000000, 1.000000000000000000 ) ) ;
#224 = APPLICATION_PROTOCOL_DEFINITION ( 'international standard', 'config_control_design', 1994, #229 ) ;
#225 = ORIENTED_EDGE ( 'NONE', *, *, #116, .T. ) ;
#226 = DIRECTION ( 'NONE',  ( 3.491481338843133355E-15, -1.224646799147353207E-16, 1.000000000000000000 ) ) ;
#227 = ADVANCED_FACE ( 'NONE', ( #97 ), #178, .F. ) ;
#228 = PRODUCT_DEFINITION_FORMATION_WITH_SPECIFIED_SOURCE ( 'ANY', '', #158, .NOT_KNOWN. ) ;
#229 = APPLICATION_CONTEXT ( 'configuration controlled 3d designs of mechanical parts and assemblies' ) ;
#230 = CARTESIAN_POINT ( 'NONE',  ( 1.500000000000014433, 0.0000000000000000000, 5.211862153689862609 ) ) ;
#231 = AXIS2_PLACEMENT_3D ( 'NONE', #95, #226, #38 ) ;
#232 = CC_DESIGN_PERSON_AND_ORGANIZATION_ASSIGNMENT ( #68, #198, ( #228 ) ) ;
#233 = AXIS2_PLACEMENT_3D ( 'NONE', #151, #112, #154 ) ;
#234 = APPROVAL_DATE_TIME ( #27, #89 ) ;
#235 = SECURITY_CLASSIFICATION ( '', '', #51 ) ;
#236 = APPLICATION_CONTEXT ( 'configuration controlled 3d designs of mechanical parts and assemblies' ) ;
#237 = DIRECTION ( 'NONE',  ( 0.0000000000000000000, 1.000000000000000000, 0.0000000000000000000 ) ) ;
#238 = PRODUCT_RELATED_PRODUCT_CATEGORY ( 'detail', '', ( #158 ) ) ;
#239 = CARTESIAN_POINT ( 'NONE',  ( 2.618611004132348044E-15, 0.0000000000000000000, 0.7499999999999994449 ) ) ;
#240 = CARTESIAN_POINT ( 'NONE',  ( 1.316288464743861212E-13, -4.616918432785521081E-15, 37.69999999999999574 ) ) ;
#241 = DIRECTION ( 'NONE',  ( -3.491481338843133355E-15, 1.224646799147353207E-16, -1.000000000000000000 ) ) ;
#242 = DIRECTION ( 'NONE',  ( 1.000000000000000000, 0.0000000000000000000, -3.491481338843133750E-15 ) ) ;
#243 = ADVANCED_FACE ( 'NONE', ( #80 ), #102, .F. ) ;
ENDSEC;
END-ISO-10303-21;
