ISO-10303-21;
HEADER;
FILE_DESCRIPTION (( 'STEP AP203' ),
    '1' );
FILE_NAME ('64363.step',
    '2021-11-10T07:14:22',
    ( '' ),
    ( '' ),
    'SwSTEP 2.0',
    'SolidWorks 2019',
    '' );
FILE_SCHEMA (( 'CONFIG_CONTROL_DESIGN' ));
ENDSEC;

DATA;
#1 = ADVANCED_FACE ( 'NONE', ( #39 ), #113, .T. ) ;
#2 = PERSON_AND_ORGANIZATION ( #140, #3 ) ;
#3 = ORGANIZATION ( 'UNSPECIFIED', 'UNSPECIFIED', '' ) ;
#4 = CC_DESIGN_DATE_AND_TIME_ASSIGNMENT ( #167, #99, ( #229 ) ) ;
#5 = COORDINATED_UNIVERSAL_TIME_OFFSET ( 1, 0, .AHEAD. ) ;
#6 = ORIENTED_EDGE ( 'NONE', *, *, #24, .F. ) ;
#7 = CARTESIAN_POINT ( 'NONE',  ( -6.413803915257457113E-31, 2.249659577954772199E-32, -1.836986451539393076E-16 ) ) ;
#8 = AXIS2_PLACEMENT_3D ( 'NONE', #7, #230, #45 ) ;
#9 = LOCAL_TIME ( 8, 14, 22.00000000000000000, #147 ) ;
#10 = APPROVAL ( #79, 'UNSPECIFIED' ) ;
#11 = CIRCLE ( 'NONE', #231, 1.199999999999998845 ) ;
#12 = CARTESIAN_POINT ( 'NONE',  ( 4.251360669415447363E-15, 0.0000000000000000000, 1.217638090205027890 ) ) ;
#13 = DIRECTION ( 'NONE',  ( 1.000000000000000000, 0.0000000000000000000, -3.469446951953622866E-15 ) ) ;
#14 = PERSON_AND_ORGANIZATION_ROLE ( 'design_owner' ) ;
#15 = DIRECTION ( 'NONE',  ( 4.275831445896958607E-31, 1.000000000000000000, 1.224646799147353207E-16 ) ) ;
#16 =( LENGTH_UNIT ( ) NAMED_UNIT ( * ) SI_UNIT ( .MILLI., .METRE. ) );
#17 = EDGE_LOOP ( 'NONE', ( #239 ) ) ;
#18 = CARTESIAN_POINT ( 'NONE',  ( 1.326762908760390423E-13, -4.653657836759941941E-15, 38.00000000000000000 ) ) ;
#19 = VERTEX_POINT ( 'NONE', #85 ) ;
#20 = CALENDAR_DATE ( 2021, 10, 11 ) ;
#21 = AXIS2_PLACEMENT_3D ( 'NONE', #23, #123, #108 ) ;
#22 = FACE_OUTER_BOUND ( 'NONE', #60, .T. ) ;
#23 = CARTESIAN_POINT ( 'NONE',  ( 1.326762908760390423E-13, -4.653657836759941941E-15, 38.00000000000000000 ) ) ;
#24 = EDGE_CURVE ( 'NONE', #58, #58, #117, .T. ) ;
#25 = DIRECTION ( 'NONE',  ( 3.491481338843133355E-15, -1.224646799147353207E-16, 1.000000000000000000 ) ) ;
#26 = AXIS2_PLACEMENT_3D ( 'NONE', #200, #36, #240 ) ;
#27 = ADVANCED_FACE ( 'NONE', ( #176, #122 ), #160, .T. ) ;
#28 = EDGE_CURVE ( 'NONE', #49, #49, #217, .T. ) ;
#29 = ADVANCED_FACE ( 'NONE', ( #141, #124 ), #120, .T. ) ;
#30 = CIRCLE ( 'NONE', #96, 1.499999999999998446 ) ;
#31 = PRODUCT_DEFINITION_FORMATION_WITH_SPECIFIED_SOURCE ( 'ANY', '', #127, .NOT_KNOWN. ) ;
#32 = DIRECTION ( 'NONE',  ( 3.491481338843133355E-15, -0.0000000000000000000, 1.000000000000000000 ) ) ;
#33 = PRODUCT_DEFINITION_SHAPE ( 'NONE', 'NONE',  #229 ) ;
#34 = DIRECTION ( 'NONE',  ( 3.491481338843133355E-15, -0.0000000000000000000, 1.000000000000000000 ) ) ;
#35 = ORIENTED_EDGE ( 'NONE', *, *, #143, .F. ) ;
#36 = DIRECTION ( 'NONE',  ( 3.491481338843133355E-15, -0.0000000000000000000, 1.000000000000000000 ) ) ;
#37 = COORDINATED_UNIVERSAL_TIME_OFFSET ( 1, 0, .AHEAD. ) ;
#38 = AXIS2_PLACEMENT_3D ( 'NONE', #50, #188, #222 ) ;
#39 = FACE_OUTER_BOUND ( 'NONE', #17, .T. ) ;
#40 = DIRECTION ( 'NONE',  ( -3.491481338843133355E-15, 1.224646799147353207E-16, -1.000000000000000000 ) ) ;
#41 = UNCERTAINTY_MEASURE_WITH_UNIT (LENGTH_MEASURE( 1.000000000000000082E-05 ), #16, 'distance_accuracy_value', 'NONE');
#42 = APPROVAL_ROLE ( '' ) ;
#43 = ORIENTED_EDGE ( 'NONE', *, *, #24, .T. ) ;
#44 = APPROVAL_DATE_TIME ( #228, #155 ) ;
#45 = DIRECTION ( 'NONE',  ( -4.275831445896958607E-31, -1.000000000000000000, -1.224646799147353207E-16 ) ) ;
#46 = LOCAL_TIME ( 8, 14, 22.00000000000000000, #37 ) ;
#47 = CC_DESIGN_PERSON_AND_ORGANIZATION_ASSIGNMENT ( #116, #223, ( #82 ) ) ;
#48 = APPROVAL_PERSON_ORGANIZATION ( #2, #155, #204 ) ;
#49 = VERTEX_POINT ( 'NONE', #186 ) ;
#50 = CARTESIAN_POINT ( 'NONE',  ( 0.0000000000000000000, 0.0000000000000000000, 0.0000000000000000000 ) ) ;
#51 = CIRCLE ( 'NONE', #26, 0.3500000000000000333 ) ;
#52 = CARTESIAN_POINT ( 'NONE',  ( 0.3499999999999998113, 0.0000000000000000000, -1.222018468595096083E-15 ) ) ;
#53 = CC_DESIGN_PERSON_AND_ORGANIZATION_ASSIGNMENT ( #220, #59, ( #31 ) ) ;
#54 = FACE_OUTER_BOUND ( 'NONE', #242, .T. ) ;
#55 = ORIENTED_EDGE ( 'NONE', *, *, #112, .F. ) ;
#56 = DIRECTION ( 'NONE',  ( 3.491481338843133355E-15, -1.224646799147353207E-16, 1.000000000000000000 ) ) ;
#57 = MANIFOLD_SOLID_BREP ( 'Corps-Déplacer/Copier1[1]', #135 ) ;
#58 = VERTEX_POINT ( 'NONE', #212 ) ;
#59 = PERSON_AND_ORGANIZATION_ROLE ( 'design_supplier' ) ;
#60 = EDGE_LOOP ( 'NONE', ( #35 ) ) ;
#61 = FACE_OUTER_BOUND ( 'NONE', #97, .T. ) ;
#62 = APPLICATION_CONTEXT ( 'configuration controlled 3d designs of mechanical parts and assemblies' ) ;
#63 = LOCAL_TIME ( 8, 14, 22.00000000000000000, #199 ) ;
#64 = ORIENTED_EDGE ( 'NONE', *, *, #143, .T. ) ;
#65 = CALENDAR_DATE ( 2021, 10, 11 ) ;
#66 = CC_DESIGN_APPROVAL ( #174, ( #229 ) ) ;
#67 = CARTESIAN_POINT ( 'NONE',  ( 2.444036937190191377E-15, 0.0000000000000000000, 0.6999999999999994005 ) ) ;
#68 = DIRECTION ( 'NONE',  ( 3.491481338843133355E-15, -0.0000000000000000000, 1.000000000000000000 ) ) ;
#69 = APPLICATION_PROTOCOL_DEFINITION ( 'international standard', 'config_control_design', 1994, #100 ) ;
#70 = DIRECTION ( 'NONE',  ( 1.000000000000000000, 0.0000000000000000000, -3.491481338843133750E-15 ) ) ;
#71 = PERSON_AND_ORGANIZATION ( #140, #3 ) ;
#72 = VERTEX_POINT ( 'NONE', #164 ) ;
#73 = FACE_OUTER_BOUND ( 'NONE', #78, .T. ) ;
#74 =( NAMED_UNIT ( * ) PLANE_ANGLE_UNIT ( ) SI_UNIT ( $, .RADIAN. ) );
#75 = COORDINATED_UNIVERSAL_TIME_OFFSET ( 1, 0, .AHEAD. ) ;
#76 = SHAPE_DEFINITION_REPRESENTATION ( #33, #210 ) ;
#77 = CC_DESIGN_SECURITY_CLASSIFICATION ( #82, ( #31 ) ) ;
#78 = EDGE_LOOP ( 'NONE', ( #115 ) ) ;
#79 = APPROVAL_STATUS ( 'not_yet_approved' ) ;
#80 = PLANE ( 'NONE',  #8 ) ;
#81 = AXIS2_PLACEMENT_3D ( 'NONE', #168, #40, #185 ) ;
#82 = SECURITY_CLASSIFICATION ( '', '', #201 ) ;
#83 = CARTESIAN_POINT ( 'NONE',  ( 0.0000000000000000000, 0.0000000000000000000, 0.0000000000000000000 ) ) ;
#84 = CARTESIAN_POINT ( 'NONE',  ( 2.444036937190190588E-15, 0.0000000000000000000, 0.6999999999999992895 ) ) ;
#85 = CARTESIAN_POINT ( 'NONE',  ( 0.3500000000000024758, 0.0000000000000000000, 0.6999999999999980682 ) ) ;
#86 = CARTESIAN_POINT ( 'NONE',  ( 1.834830502704483185E-14, 0.0000000000000000000, 5.255163423879090523 ) ) ;
#87 = DATE_AND_TIME ( #105, #63 ) ;
#88 = ORIENTED_EDGE ( 'NONE', *, *, #150, .F. ) ;
#89 = DIRECTION ( 'NONE',  ( -3.491481338843133355E-15, 1.224646799147353207E-16, -1.000000000000000000 ) ) ;
#90 = AXIS2_PLACEMENT_3D ( 'NONE', #215, #68, #103 ) ;
#91 = VERTEX_POINT ( 'NONE', #145 ) ;
#92 = PERSON_AND_ORGANIZATION ( #140, #3 ) ;
#93 = PLANE ( 'NONE',  #81 ) ;
#94 = DIRECTION ( 'NONE',  ( -4.275831445896958607E-31, -1.000000000000000000, -1.224646799147353207E-16 ) ) ;
#95 = PERSON_AND_ORGANIZATION ( #140, #3 ) ;
#96 = AXIS2_PLACEMENT_3D ( 'NONE', #107, #243, #148 ) ;
#97 = EDGE_LOOP ( 'NONE', ( #129 ) ) ;
#98 = CC_DESIGN_PERSON_AND_ORGANIZATION_ASSIGNMENT ( #92, #207, ( #31 ) ) ;
#99 = DATE_TIME_ROLE ( 'creation_date' ) ;
#100 = APPLICATION_CONTEXT ( 'configuration controlled 3d designs of mechanical parts and assemblies' ) ;
#101 = DIRECTION ( 'NONE',  ( 3.491481338843133355E-15, -0.0000000000000000000, 1.000000000000000000 ) ) ;
#102 = CC_DESIGN_DATE_AND_TIME_ASSIGNMENT ( #169, #241, ( #82 ) ) ;
#103 = DIRECTION ( 'NONE',  ( 1.000000000000000000, 0.0000000000000000000, -3.469446951953622866E-15 ) ) ;
#104 = FACE_OUTER_BOUND ( 'NONE', #171, .T. ) ;
#105 = CALENDAR_DATE ( 2021, 10, 11 ) ;
#106 = EDGE_LOOP ( 'NONE', ( #43 ) ) ;
#107 = CARTESIAN_POINT ( 'NONE',  ( 1.316288464743861212E-13, -4.616918432785521081E-15, 37.69999999999999574 ) ) ;
#108 = DIRECTION ( 'NONE',  ( 0.0000000000000000000, 1.000000000000000000, 0.0000000000000000000 ) ) ;
#109 = DIRECTION ( 'NONE',  ( -4.275831445896958607E-31, -1.000000000000000000, -1.224646799147353207E-16 ) ) ;
#110 =( GEOMETRIC_REPRESENTATION_CONTEXT ( 3 ) GLOBAL_UNCERTAINTY_ASSIGNED_CONTEXT ( ( #41 ) ) GLOBAL_UNIT_ASSIGNED_CONTEXT ( ( #16, #74, #126 ) ) REPRESENTATION_CONTEXT ( 'NONE', 'WORKASPACE' ) );
#111 = DESIGN_CONTEXT ( 'detailed design', #62, 'design' ) ;
#112 = EDGE_CURVE ( 'NONE', #19, #19, #232, .T. ) ;
#113 = PLANE ( 'NONE',  #138 ) ;
#114 = ADVANCED_FACE ( 'NONE', ( #233, #104 ), #213, .T. ) ;
#115 = ORIENTED_EDGE ( 'NONE', *, *, #177, .F. ) ;
#116 = PERSON_AND_ORGANIZATION ( #140, #3 ) ;
#117 = CIRCLE ( 'NONE', #156, 0.4181483474218600782 ) ;
#118 = FACE_OUTER_BOUND ( 'NONE', #187, .T. ) ;
#119 = CC_DESIGN_APPROVAL ( #10, ( #82 ) ) ;
#120 = CONICAL_SURFACE ( 'NONE', #194, 1.499999999999996225, 0.2617993877991429130 ) ;
#121 = DIRECTION ( 'NONE',  ( 1.000000000000000000, 0.0000000000000000000, -3.630010858199924170E-15 ) ) ;
#122 = FACE_OUTER_BOUND ( 'NONE', #172, .T. ) ;
#123 = DIRECTION ( 'NONE',  ( -3.491481338843133355E-15, 1.224646799147353207E-16, -1.000000000000000000 ) ) ;
#124 = FACE_OUTER_BOUND ( 'NONE', #131, .T. ) ;
#125 = AXIS2_PLACEMENT_3D ( 'NONE', #84, #158, #198 ) ;
#126 =( NAMED_UNIT ( * ) SI_UNIT ( $, .STERADIAN. ) SOLID_ANGLE_UNIT ( ) );
#127 = PRODUCT ( '64363', '64363', '', ( #214 ) ) ;
#128 = CALENDAR_DATE ( 2021, 10, 11 ) ;
#129 = ORIENTED_EDGE ( 'NONE', *, *, #161, .F. ) ;
#130 = LOCAL_TIME ( 8, 14, 22.00000000000000000, #5 ) ;
#131 = EDGE_LOOP ( 'NONE', ( #152 ) ) ;
#132 = APPROVAL_STATUS ( 'not_yet_approved' ) ;
#133 = PRODUCT_RELATED_PRODUCT_CATEGORY ( 'detail', '', ( #127 ) ) ;
#134 = DATE_AND_TIME ( #170, #9 ) ;
#135 = CLOSED_SHELL ( 'NONE', ( #114, #224, #154, #227, #29, #179 ) ) ;
#136 = LOCAL_TIME ( 8, 14, 22.00000000000000000, #75 ) ;
#137 = CC_DESIGN_PERSON_AND_ORGANIZATION_ASSIGNMENT ( #153, #151, ( #229 ) ) ;
#138 = AXIS2_PLACEMENT_3D ( 'NONE', #190, #25, #94 ) ;
#139 = FACE_OUTER_BOUND ( 'NONE', #165, .T. ) ;
#140 = PERSON ( 'UNSPECIFIED', 'UNSPECIFIED', 'UNSPECIFIED', ('UNSPECIFIED'), ('UNSPECIFIED'), ('UNSPECIFIED') ) ;
#141 = FACE_BOUND ( 'NONE', #106, .T. ) ;
#142 = APPROVAL_STATUS ( 'not_yet_approved' ) ;
#143 = EDGE_CURVE ( 'NONE', #183, #183, #144, .T. ) ;
#144 = CIRCLE ( 'NONE', #38, 0.3499999999999998113 ) ;
#145 = CARTESIAN_POINT ( 'NONE',  ( 1.326762908760390423E-13, 1.199999999999994182, 38.00000000000000000 ) ) ;
#146 = PLANE ( 'NONE',  #211 ) ;
#147 = COORDINATED_UNIVERSAL_TIME_OFFSET ( 1, 0, .AHEAD. ) ;
#148 = DIRECTION ( 'NONE',  ( 0.0000000000000000000, 1.000000000000000000, 0.0000000000000000000 ) ) ;
#149 = ORIENTED_EDGE ( 'NONE', *, *, #150, .T. ) ;
#150 = EDGE_CURVE ( 'NONE', #72, #72, #30, .T. ) ;
#151 = PERSON_AND_ORGANIZATION_ROLE ( 'creator' ) ;
#152 = ORIENTED_EDGE ( 'NONE', *, *, #28, .F. ) ;
#153 = PERSON_AND_ORGANIZATION ( #140, #3 ) ;
#154 = ADVANCED_FACE ( 'NONE', ( #61 ), #93, .F. ) ;
#155 = APPROVAL ( #132, 'UNSPECIFIED' ) ;
#156 = AXIS2_PLACEMENT_3D ( 'NONE', #12, #101, #121 ) ;
#157 = APPROVAL_PERSON_ORGANIZATION ( #71, #174, #216 ) ;
#158 = DIRECTION ( 'NONE',  ( 3.491481338843133355E-15, -0.0000000000000000000, 1.000000000000000000 ) ) ;
#159 = DIRECTION ( 'NONE',  ( 0.0000000000000000000, 0.0000000000000000000, 1.000000000000000000 ) ) ;
#160 = CYLINDRICAL_SURFACE ( 'NONE', #175, 0.3499999999999999223 ) ;
#161 = EDGE_CURVE ( 'NONE', #91, #91, #11, .T. ) ;
#162 = CARTESIAN_POINT ( 'NONE',  ( 0.3500000000000024758, 0.0000000000000000000, 0.6999999999999980682 ) ) ;
#163 = CARTESIAN_POINT ( 'NONE',  ( -1.786038389295302186E-30, 0.0000000000000000000, -5.115417256925931626E-16 ) ) ;
#164 = CARTESIAN_POINT ( 'NONE',  ( 1.316288464743861212E-13, 1.499999999999994005, 37.69999999999999574 ) ) ;
#165 = EDGE_LOOP ( 'NONE', ( #6 ) ) ;
#166 = DIRECTION ( 'NONE',  ( 0.0000000000000000000, 1.000000000000000000, 0.0000000000000000000 ) ) ;
#167 = DATE_AND_TIME ( #20, #130 ) ;
#168 = CARTESIAN_POINT ( 'NONE',  ( 1.326762908760390423E-13, 8.998558695971069014E-33, 38.00000000000000000 ) ) ;
#169 = DATE_AND_TIME ( #65, #46 ) ;
#170 = CALENDAR_DATE ( 2021, 10, 11 ) ;
#171 = EDGE_LOOP ( 'NONE', ( #221 ) ) ;
#172 = EDGE_LOOP ( 'NONE', ( #55 ) ) ;
#173 = CLOSED_SHELL ( 'NONE', ( #1, #27, #205 ) ) ;
#174 = APPROVAL ( #142, 'UNSPECIFIED' ) ;
#175 = AXIS2_PLACEMENT_3D ( 'NONE', #163, #196, #70 ) ;
#176 = FACE_OUTER_BOUND ( 'NONE', #184, .T. ) ;
#177 = EDGE_CURVE ( 'NONE', #197, #197, #51, .T. ) ;
#178 = AXIS2_PLACEMENT_3D ( 'NONE', #67, #34, #195 ) ;
#179 = ADVANCED_FACE ( 'NONE', ( #73 ), #146, .F. ) ;
#180 = PERSON_AND_ORGANIZATION ( #140, #3 ) ;
#181 = DIRECTION ( 'NONE',  ( -3.491481338843133355E-15, 1.224646799147353207E-16, -1.000000000000000000 ) ) ;
#182 = CC_DESIGN_PERSON_AND_ORGANIZATION_ASSIGNMENT ( #180, #14, ( #127 ) ) ;
#183 = VERTEX_POINT ( 'NONE', #52 ) ;
#184 = EDGE_LOOP ( 'NONE', ( #64 ) ) ;
#185 = DIRECTION ( 'NONE',  ( 4.275831445896958607E-31, 1.000000000000000000, 1.224646799147353207E-16 ) ) ;
#186 = CARTESIAN_POINT ( 'NONE',  ( 1.500000000000014655, 0.0000000000000000000, 5.255163423879086082 ) ) ;
#187 = EDGE_LOOP ( 'NONE', ( #88 ) ) ;
#188 = DIRECTION ( 'NONE',  ( 3.491481338843133355E-15, -0.0000000000000000000, 1.000000000000000000 ) ) ;
#189 = AXIS2_PLACEMENT_3D ( 'NONE', #83, #159, #234 ) ;
#190 = CARTESIAN_POINT ( 'NONE',  ( 2.444036937190192560E-15, -1.011922027653140225E-16, 0.6999999999999997335 ) ) ;
#191 = APPROVAL_DATE_TIME ( #134, #10 ) ;
#192 = FACE_BOUND ( 'NONE', #218, .T. ) ;
#193 = CC_DESIGN_APPROVAL ( #155, ( #31 ) ) ;
#194 = AXIS2_PLACEMENT_3D ( 'NONE', #86, #32, #13 ) ;
#195 = DIRECTION ( 'NONE',  ( 1.000000000000000000, 0.0000000000000000000, -3.491481338843133355E-15 ) ) ;
#196 = DIRECTION ( 'NONE',  ( 3.491481338843133355E-15, -0.0000000000000000000, 1.000000000000000000 ) ) ;
#197 = VERTEX_POINT ( 'NONE', #162 ) ;
#198 = DIRECTION ( 'NONE',  ( 1.000000000000000000, 0.0000000000000000000, -3.407492542097299143E-15 ) ) ;
#199 = COORDINATED_UNIVERSAL_TIME_OFFSET ( 1, 0, .AHEAD. ) ;
#200 = CARTESIAN_POINT ( 'NONE',  ( 2.444036937190190588E-15, 0.0000000000000000000, 0.6999999999999992895 ) ) ;
#201 = SECURITY_CLASSIFICATION_LEVEL ( 'unclassified' ) ;
#202 = EDGE_LOOP ( 'NONE', ( #149 ) ) ;
#203 = CONICAL_SURFACE ( 'NONE', #21, 1.199999999999998845, 0.7853981633974450594 ) ;
#204 = APPROVAL_ROLE ( '' ) ;
#205 = ADVANCED_FACE ( 'NONE', ( #22 ), #80, .F. ) ;
#206 = ORIENTED_EDGE ( 'NONE', *, *, #161, .T. ) ;
#207 = PERSON_AND_ORGANIZATION_ROLE ( 'creator' ) ;
#208 = AXIS2_PLACEMENT_3D ( 'NONE', #235, #181, #15 ) ;
#209 = MANIFOLD_SOLID_BREP ( 'Corps-Déplacer/Copier1[2]', #173 ) ;
#210 = ADVANCED_BREP_SHAPE_REPRESENTATION ( '64363', ( #57, #209, #189 ), #110 ) ;
#211 = AXIS2_PLACEMENT_3D ( 'NONE', #219, #56, #109 ) ;
#212 = CARTESIAN_POINT ( 'NONE',  ( 0.4181483474218642971, 0.0000000000000000000, 1.217638090205026336 ) ) ;
#213 = CYLINDRICAL_SURFACE ( 'NONE', #208, 1.499999999999996225 ) ;
#214 = MECHANICAL_CONTEXT ( 'NONE', #100, 'mechanical' ) ;
#215 = CARTESIAN_POINT ( 'NONE',  ( 1.834830502704483185E-14, 0.0000000000000000000, 5.255163423879090523 ) ) ;
#216 = APPROVAL_ROLE ( '' ) ;
#217 = CIRCLE ( 'NONE', #90, 1.499999999999996225 ) ;
#218 = EDGE_LOOP ( 'NONE', ( #206 ) ) ;
#219 = CARTESIAN_POINT ( 'NONE',  ( 2.444036937190192560E-15, -1.011922027653140225E-16, 0.6999999999999997335 ) ) ;
#220 = PERSON_AND_ORGANIZATION ( #140, #3 ) ;
#221 = ORIENTED_EDGE ( 'NONE', *, *, #28, .T. ) ;
#222 = DIRECTION ( 'NONE',  ( 1.000000000000000000, 0.0000000000000000000, -3.491481338843133355E-15 ) ) ;
#223 = PERSON_AND_ORGANIZATION_ROLE ( 'classification_officer' ) ;
#224 = ADVANCED_FACE ( 'NONE', ( #118, #192 ), #203, .T. ) ;
#225 = ORIENTED_EDGE ( 'NONE', *, *, #177, .T. ) ;
#226 = APPROVAL_PERSON_ORGANIZATION ( #95, #10, #42 ) ;
#227 = ADVANCED_FACE ( 'NONE', ( #54, #139 ), #238, .F. ) ;
#228 = DATE_AND_TIME ( #128, #136 ) ;
#229 = PRODUCT_DEFINITION ( 'UNKNOWN', '', #31, #111 ) ;
#230 = DIRECTION ( 'NONE',  ( 3.491481338843133355E-15, -1.224646799147353207E-16, 1.000000000000000000 ) ) ;
#231 = AXIS2_PLACEMENT_3D ( 'NONE', #18, #89, #166 ) ;
#232 = CIRCLE ( 'NONE', #125, 0.3500000000000000333 ) ;
#233 = FACE_OUTER_BOUND ( 'NONE', #202, .T. ) ;
#234 = DIRECTION ( 'NONE',  ( 1.000000000000000000, 0.0000000000000000000, 0.0000000000000000000 ) ) ;
#235 = CARTESIAN_POINT ( 'NONE',  ( 0.0000000000000000000, 0.0000000000000000000, 0.0000000000000000000 ) ) ;
#236 = APPLICATION_PROTOCOL_DEFINITION ( 'international standard', 'config_control_design', 1994, #62 ) ;
#237 = APPROVAL_DATE_TIME ( #87, #174 ) ;
#238 = TOROIDAL_SURFACE ( 'NONE', #178, 2.350000000000000089, 2.000000000000000000 ) ;
#239 = ORIENTED_EDGE ( 'NONE', *, *, #112, .T. ) ;
#240 = DIRECTION ( 'NONE',  ( 1.000000000000000000, 0.0000000000000000000, -3.407492542097299143E-15 ) ) ;
#241 = DATE_TIME_ROLE ( 'classification_date' ) ;
#242 = EDGE_LOOP ( 'NONE', ( #225 ) ) ;
#243 = DIRECTION ( 'NONE',  ( -3.491481338843133355E-15, 1.224646799147353207E-16, -1.000000000000000000 ) ) ;
ENDSEC;
END-ISO-10303-21;
