ISO-10303-21;
HEADER;
FILE_DESCRIPTION (( 'STEP AP203' ),
    '1' );
FILE_NAME ('64362.step',
    '2021-11-10T07:14:21',
    ( '' ),
    ( '' ),
    'SwSTEP 2.0',
    'SolidWorks 2019',
    '' );
FILE_SCHEMA (( 'CONFIG_CONTROL_DESIGN' ));
ENDSEC;

DATA;
#1 = APPROVAL_ROLE ( '' ) ;
#2 = ADVANCED_FACE ( 'NONE', ( #134 ), #90, .F. ) ;
#3 = AXIS2_PLACEMENT_3D ( 'NONE', #196, #17, #31 ) ;
#4 = DESIGN_CONTEXT ( 'detailed design', #120, 'design' ) ;
#5 = COORDINATED_UNIVERSAL_TIME_OFFSET ( 1, 0, .AHEAD. ) ;
#6 = CC_DESIGN_PERSON_AND_ORGANIZATION_ASSIGNMENT ( #84, #79, ( #226 ) ) ;
#7 = EDGE_CURVE ( 'NONE', #175, #175, #142, .T. ) ;
#8 = APPROVAL_PERSON_ORGANIZATION ( #187, #83, #211 ) ;
#9 = CARTESIAN_POINT ( 'NONE',  ( 1.316288464743861212E-13, 1.499999999999994005, 37.69999999999999574 ) ) ;
#10 = EDGE_LOOP ( 'NONE', ( #165 ) ) ;
#11 = DIRECTION ( 'NONE',  ( 3.491481338843133355E-15, -0.0000000000000000000, 1.000000000000000000 ) ) ;
#12 = DIRECTION ( 'NONE',  ( 4.275831445896958607E-31, 1.000000000000000000, 1.224646799147353207E-16 ) ) ;
#13 = AXIS2_PLACEMENT_3D ( 'NONE', #73, #38, #160 ) ;
#14 = FACE_OUTER_BOUND ( 'NONE', #184, .T. ) ;
#15 = DIRECTION ( 'NONE',  ( 3.491481338843133355E-15, -0.0000000000000000000, 1.000000000000000000 ) ) ;
#16 = EDGE_LOOP ( 'NONE', ( #56 ) ) ;
#17 = DIRECTION ( 'NONE',  ( 3.491481338843133355E-15, -1.224646799147353207E-16, 1.000000000000000000 ) ) ;
#18 = APPLICATION_PROTOCOL_DEFINITION ( 'international standard', 'config_control_design', 1994, #120 ) ;
#19 = APPROVAL_DATE_TIME ( #114, #229 ) ;
#20 = AXIS2_PLACEMENT_3D ( 'NONE', #198, #11, #148 ) ;
#21 = CALENDAR_DATE ( 2021, 10, 11 ) ;
#22 = ADVANCED_FACE ( 'NONE', ( #14, #129 ), #230, .T. ) ;
#23 = DATE_AND_TIME ( #224, #186 ) ;
#24 = APPROVAL_DATE_TIME ( #97, #141 ) ;
#25 = PERSON_AND_ORGANIZATION ( #46, #151 ) ;
#26 = ORIENTED_EDGE ( 'NONE', *, *, #103, .F. ) ;
#27 = PRODUCT ( '64362', '64362', '', ( #40 ) ) ;
#28 = ORIENTED_EDGE ( 'NONE', *, *, #57, .F. ) ;
#29 = FACE_OUTER_BOUND ( 'NONE', #180, .T. ) ;
#30 = SECURITY_CLASSIFICATION ( '', '', #154 ) ;
#31 = DIRECTION ( 'NONE',  ( -4.275831445896958607E-31, -1.000000000000000000, -1.224646799147353207E-16 ) ) ;
#32 = CARTESIAN_POINT ( 'NONE',  ( 0.0000000000000000000, 0.0000000000000000000, 0.0000000000000000000 ) ) ;
#33 = DIRECTION ( 'NONE',  ( 0.0000000000000000000, 1.000000000000000000, 0.0000000000000000000 ) ) ;
#34 = DIRECTION ( 'NONE',  ( -4.275831445896958607E-31, -1.000000000000000000, -1.224646799147353207E-16 ) ) ;
#35 = CC_DESIGN_DATE_AND_TIME_ASSIGNMENT ( #23, #172, ( #30 ) ) ;
#36 = CIRCLE ( 'NONE', #98, 1.199999999999998845 ) ;
#37 = CARTESIAN_POINT ( 'NONE',  ( 1.316288464743861212E-13, -4.616918432785521081E-15, 37.69999999999999574 ) ) ;
#38 = DIRECTION ( 'NONE',  ( 3.491481338843133355E-15, -0.0000000000000000000, 1.000000000000000000 ) ) ;
#39 = CALENDAR_DATE ( 2021, 10, 11 ) ;
#40 = MECHANICAL_CONTEXT ( 'NONE', #195, 'mechanical' ) ;
#41 = DATE_AND_TIME ( #191, #119 ) ;
#42 = MANIFOLD_SOLID_BREP ( 'Corps-Déplacer/Copier1[2]', #223 ) ;
#43 = PERSON_AND_ORGANIZATION ( #46, #151 ) ;
#44 = APPROVAL_PERSON_ORGANIZATION ( #100, #229, #135 ) ;
#45 = ADVANCED_FACE ( 'NONE', ( #110 ), #76, .F. ) ;
#46 = PERSON ( 'UNSPECIFIED', 'UNSPECIFIED', 'UNSPECIFIED', ('UNSPECIFIED'), ('UNSPECIFIED'), ('UNSPECIFIED') ) ;
#47 = DIRECTION ( 'NONE',  ( 1.000000000000000000, 0.0000000000000000000, -3.336006684570784876E-15 ) ) ;
#48 = CARTESIAN_POINT ( 'NONE',  ( 2.269462870248033920E-15, 0.0000000000000000000, 0.6499999999999992450 ) ) ;
#49 = AXIS2_PLACEMENT_3D ( 'NONE', #107, #15, #55 ) ;
#50 = ORIENTED_EDGE ( 'NONE', *, *, #93, .T. ) ;
#51 = CARTESIAN_POINT ( 'NONE',  ( 0.3250000000000020650, 0.0000000000000000000, 0.6499999999999981348 ) ) ;
#52 = PRODUCT_DEFINITION_SHAPE ( 'NONE', 'NONE',  #226 ) ;
#53 = DIRECTION ( 'NONE',  ( 1.000000000000000000, 0.0000000000000000000, -3.309291811893458505E-15 ) ) ;
#54 = CC_DESIGN_PERSON_AND_ORGANIZATION_ASSIGNMENT ( #43, #118, ( #169 ) ) ;
#55 = DIRECTION ( 'NONE',  ( 1.000000000000000000, 0.0000000000000000000, -3.469446951953622866E-15 ) ) ;
#56 = ORIENTED_EDGE ( 'NONE', *, *, #243, .T. ) ;
#57 = EDGE_CURVE ( 'NONE', #94, #94, #162, .T. ) ;
#58 = DIRECTION ( 'NONE',  ( 3.491481338843133355E-15, -1.224646799147353207E-16, 1.000000000000000000 ) ) ;
#59 = ORIENTED_EDGE ( 'NONE', *, *, #103, .T. ) ;
#60 = APPROVAL_STATUS ( 'not_yet_approved' ) ;
#61 = PERSON_AND_ORGANIZATION ( #46, #151 ) ;
#62 = AXIS2_PLACEMENT_3D ( 'NONE', #67, #221, #163 ) ;
#63 =( LENGTH_UNIT ( ) NAMED_UNIT ( * ) SI_UNIT ( .MILLI., .METRE. ) );
#64 = APPROVAL_DATE_TIME ( #228, #83 ) ;
#65 = ORIENTED_EDGE ( 'NONE', *, *, #174, .T. ) ;
#66 = AXIS2_PLACEMENT_3D ( 'NONE', #209, #242, #156 ) ;
#67 = CARTESIAN_POINT ( 'NONE',  ( -1.786038389295302186E-30, 0.0000000000000000000, -5.115417256925931626E-16 ) ) ;
#68 = EDGE_LOOP ( 'NONE', ( #194 ) ) ;
#69 = PLANE ( 'NONE',  #126 ) ;
#70 = AXIS2_PLACEMENT_3D ( 'NONE', #32, #240, #168 ) ;
#71 = CC_DESIGN_DATE_AND_TIME_ASSIGNMENT ( #41, #190, ( #226 ) ) ;
#72 = EDGE_LOOP ( 'NONE', ( #59 ) ) ;
#73 = CARTESIAN_POINT ( 'NONE',  ( 2.269462870248033920E-15, 0.0000000000000000000, 0.6499999999999992450 ) ) ;
#74 = DIRECTION ( 'NONE',  ( 3.491481338843133355E-15, -1.224646799147353207E-16, 1.000000000000000000 ) ) ;
#75 = FACE_OUTER_BOUND ( 'NONE', #68, .T. ) ;
#76 = PLANE ( 'NONE',  #105 ) ;
#77 = DIRECTION ( 'NONE',  ( 1.000000000000000000, 0.0000000000000000000, -3.491481338843133355E-15 ) ) ;
#78 = AXIS2_PLACEMENT_3D ( 'NONE', #37, #109, #202 ) ;
#79 = PERSON_AND_ORGANIZATION_ROLE ( 'creator' ) ;
#80 = APPLICATION_PROTOCOL_DEFINITION ( 'international standard', 'config_control_design', 1994, #195 ) ;
#81 = PERSON_AND_ORGANIZATION_ROLE ( 'design_owner' ) ;
#82 = CC_DESIGN_APPROVAL ( #141, ( #226 ) ) ;
#83 = APPROVAL ( #102, 'UNSPECIFIED' ) ;
#84 = PERSON_AND_ORGANIZATION ( #46, #151 ) ;
#85 = CC_DESIGN_SECURITY_CLASSIFICATION ( #30, ( #169 ) ) ;
#86 = APPROVAL_PERSON_ORGANIZATION ( #61, #141, #1 ) ;
#87 = VERTEX_POINT ( 'NONE', #216 ) ;
#88 = ORIENTED_EDGE ( 'NONE', *, *, #227, .F. ) ;
#89 = FACE_OUTER_BOUND ( 'NONE', #232, .T. ) ;
#90 = PLANE ( 'NONE',  #181 ) ;
#91 = CYLINDRICAL_SURFACE ( 'NONE', #62, 0.3249999999999999001 ) ;
#92 = AXIS2_PLACEMENT_3D ( 'NONE', #166, #178, #77 ) ;
#93 = EDGE_CURVE ( 'NONE', #233, #233, #36, .T. ) ;
#94 = VERTEX_POINT ( 'NONE', #9 ) ;
#95 = CARTESIAN_POINT ( 'NONE',  ( 1.326762908760390423E-13, 8.998558695971069014E-33, 38.00000000000000000 ) ) ;
#96 = CARTESIAN_POINT ( 'NONE',  ( 0.0000000000000000000, 0.0000000000000000000, 0.0000000000000000000 ) ) ;
#97 = DATE_AND_TIME ( #207, #234 ) ;
#98 = AXIS2_PLACEMENT_3D ( 'NONE', #205, #127, #200 ) ;
#99 = PERSON_AND_ORGANIZATION_ROLE ( 'design_supplier' ) ;
#100 = PERSON_AND_ORGANIZATION ( #46, #151 ) ;
#101 = CC_DESIGN_PERSON_AND_ORGANIZATION_ASSIGNMENT ( #115, #81, ( #27 ) ) ;
#102 = APPROVAL_STATUS ( 'not_yet_approved' ) ;
#103 = EDGE_CURVE ( 'NONE', #87, #87, #171, .T. ) ;
#104 = PERSON_AND_ORGANIZATION_ROLE ( 'classification_officer' ) ;
#105 = AXIS2_PLACEMENT_3D ( 'NONE', #237, #74, #203 ) ;
#106 = CIRCLE ( 'NONE', #49, 1.499999999999996225 ) ;
#107 = CARTESIAN_POINT ( 'NONE',  ( 1.849949060385871969E-14, 0.0000000000000000000, 5.298464694068316660 ) ) ;
#108 = DIRECTION ( 'NONE',  ( -3.491481338843133355E-15, 1.224646799147353207E-16, -1.000000000000000000 ) ) ;
#109 = DIRECTION ( 'NONE',  ( -3.491481338843133355E-15, 1.224646799147353207E-16, -1.000000000000000000 ) ) ;
#110 = FACE_OUTER_BOUND ( 'NONE', #220, .T. ) ;
#111 = FACE_OUTER_BOUND ( 'NONE', #16, .T. ) ;
#112 = ORIENTED_EDGE ( 'NONE', *, *, #93, .F. ) ;
#113 = VERTEX_POINT ( 'NONE', #128 ) ;
#114 = DATE_AND_TIME ( #39, #140 ) ;
#115 = PERSON_AND_ORGANIZATION ( #46, #151 ) ;
#116 = ADVANCED_BREP_SHAPE_REPRESENTATION ( '64362', ( #204, #42, #66 ), #155 ) ;
#117 = APPROVAL_STATUS ( 'not_yet_approved' ) ;
#118 = PERSON_AND_ORGANIZATION_ROLE ( 'creator' ) ;
#119 = LOCAL_TIME ( 8, 14, 21.00000000000000000, #152 ) ;
#120 = APPLICATION_CONTEXT ( 'configuration controlled 3d designs of mechanical parts and assemblies' ) ;
#121 = CIRCLE ( 'NONE', #13, 0.3249999999999997891 ) ;
#122 = ADVANCED_FACE ( 'NONE', ( #143 ), #69, .T. ) ;
#123 = ADVANCED_FACE ( 'NONE', ( #29, #238 ), #158, .F. ) ;
#124 = EDGE_LOOP ( 'NONE', ( #112 ) ) ;
#125 = FACE_OUTER_BOUND ( 'NONE', #222, .T. ) ;
#126 = AXIS2_PLACEMENT_3D ( 'NONE', #215, #58, #34 ) ;
#127 = DIRECTION ( 'NONE',  ( -3.491481338843133355E-15, 1.224646799147353207E-16, -1.000000000000000000 ) ) ;
#128 = CARTESIAN_POINT ( 'NONE',  ( 0.3250000000000020650, 0.0000000000000000000, 0.6499999999999981348 ) ) ;
#129 = FACE_BOUND ( 'NONE', #235, .T. ) ;
#130 = CARTESIAN_POINT ( 'NONE',  ( 1.500000000000014655, 0.0000000000000000000, 5.298464694068311331 ) ) ;
#131 = ORIENTED_EDGE ( 'NONE', *, *, #7, .F. ) ;
#132 = DIRECTION ( 'NONE',  ( 3.491481338843133355E-15, -0.0000000000000000000, 1.000000000000000000 ) ) ;
#133 = CONICAL_SURFACE ( 'NONE', #20, 1.499999999999996225, 0.2617993877991428575 ) ;
#134 = FACE_OUTER_BOUND ( 'NONE', #124, .T. ) ;
#135 = APPROVAL_ROLE ( '' ) ;
#136 =( NAMED_UNIT ( * ) SI_UNIT ( $, .STERADIAN. ) SOLID_ANGLE_UNIT ( ) );
#137 = CLOSED_SHELL ( 'NONE', ( #138, #22, #2, #123, #179, #45 ) ) ;
#138 = ADVANCED_FACE ( 'NONE', ( #219, #111 ), #150, .T. ) ;
#139 = COORDINATED_UNIVERSAL_TIME_OFFSET ( 1, 0, .AHEAD. ) ;
#140 = LOCAL_TIME ( 8, 14, 21.00000000000000000, #206 ) ;
#141 = APPROVAL ( #117, 'UNSPECIFIED' ) ;
#142 = CIRCLE ( 'NONE', #193, 0.3931483474218597784 ) ;
#143 = FACE_OUTER_BOUND ( 'NONE', #214, .T. ) ;
#144 = ORIENTED_EDGE ( 'NONE', *, *, #174, .F. ) ;
#145 = ORIENTED_EDGE ( 'NONE', *, *, #227, .T. ) ;
#146 = VERTEX_POINT ( 'NONE', #130 ) ;
#147 = ORIENTED_EDGE ( 'NONE', *, *, #57, .T. ) ;
#148 = DIRECTION ( 'NONE',  ( 1.000000000000000000, 0.0000000000000000000, -3.469446951953622866E-15 ) ) ;
#149 = CARTESIAN_POINT ( 'NONE',  ( 4.076786602473290695E-15, 0.0000000000000000000, 1.167638090205028067 ) ) ;
#150 = CYLINDRICAL_SURFACE ( 'NONE', #192, 1.499999999999996225 ) ;
#151 = ORGANIZATION ( 'UNSPECIFIED', 'UNSPECIFIED', '' ) ;
#152 = COORDINATED_UNIVERSAL_TIME_OFFSET ( 1, 0, .AHEAD. ) ;
#153 = SHAPE_DEFINITION_REPRESENTATION ( #52, #116 ) ;
#154 = SECURITY_CLASSIFICATION_LEVEL ( 'unclassified' ) ;
#155 =( GEOMETRIC_REPRESENTATION_CONTEXT ( 3 ) GLOBAL_UNCERTAINTY_ASSIGNED_CONTEXT ( ( #189 ) ) GLOBAL_UNIT_ASSIGNED_CONTEXT ( ( #63, #170, #136 ) ) REPRESENTATION_CONTEXT ( 'NONE', 'WORKASPACE' ) );
#156 = DIRECTION ( 'NONE',  ( 1.000000000000000000, 0.0000000000000000000, 0.0000000000000000000 ) ) ;
#157 = LOCAL_TIME ( 8, 14, 21.00000000000000000, #5 ) ;
#158 = TOROIDAL_SURFACE ( 'NONE', #92, 2.324999999999999734, 2.000000000000000000 ) ;
#159 = FACE_OUTER_BOUND ( 'NONE', #72, .T. ) ;
#160 = DIRECTION ( 'NONE',  ( 1.000000000000000000, 0.0000000000000000000, -3.336006684570784876E-15 ) ) ;
#161 = DIRECTION ( 'NONE',  ( -3.491481338843133355E-15, 1.224646799147353207E-16, -1.000000000000000000 ) ) ;
#162 = CIRCLE ( 'NONE', #78, 1.499999999999998446 ) ;
#163 = DIRECTION ( 'NONE',  ( 1.000000000000000000, 0.0000000000000000000, -3.491481338843133355E-15 ) ) ;
#164 = CC_DESIGN_PERSON_AND_ORGANIZATION_ASSIGNMENT ( #25, #104, ( #30 ) ) ;
#165 = ORIENTED_EDGE ( 'NONE', *, *, #7, .T. ) ;
#166 = CARTESIAN_POINT ( 'NONE',  ( 2.269462870248034709E-15, 0.0000000000000000000, 0.6499999999999994671 ) ) ;
#167 = DIRECTION ( 'NONE',  ( 3.491481338843133355E-15, -0.0000000000000000000, 1.000000000000000000 ) ) ;
#168 = DIRECTION ( 'NONE',  ( 1.000000000000000000, 0.0000000000000000000, -3.491481338843133355E-15 ) ) ;
#169 = PRODUCT_DEFINITION_FORMATION_WITH_SPECIFIED_SOURCE ( 'ANY', '', #27, .NOT_KNOWN. ) ;
#170 =( NAMED_UNIT ( * ) PLANE_ANGLE_UNIT ( ) SI_UNIT ( $, .RADIAN. ) );
#171 = CIRCLE ( 'NONE', #70, 0.3250000000000000111 ) ;
#172 = DATE_TIME_ROLE ( 'classification_date' ) ;
#173 = AXIS2_PLACEMENT_3D ( 'NONE', #201, #239, #33 ) ;
#174 = EDGE_CURVE ( 'NONE', #185, #185, #213, .T. ) ;
#175 = VERTEX_POINT ( 'NONE', #231 ) ;
#176 = EDGE_LOOP ( 'NONE', ( #147 ) ) ;
#177 = FACE_BOUND ( 'NONE', #10, .T. ) ;
#178 = DIRECTION ( 'NONE',  ( 3.491481338843133355E-15, -0.0000000000000000000, 1.000000000000000000 ) ) ;
#179 = ADVANCED_FACE ( 'NONE', ( #177, #75 ), #133, .T. ) ;
#180 = EDGE_LOOP ( 'NONE', ( #145 ) ) ;
#181 = AXIS2_PLACEMENT_3D ( 'NONE', #95, #161, #218 ) ;
#182 = PLANE ( 'NONE',  #3 ) ;
#183 = ADVANCED_FACE ( 'NONE', ( #125 ), #182, .F. ) ;
#184 = EDGE_LOOP ( 'NONE', ( #28 ) ) ;
#185 = VERTEX_POINT ( 'NONE', #51 ) ;
#186 = LOCAL_TIME ( 8, 14, 21.00000000000000000, #225 ) ;
#187 = PERSON_AND_ORGANIZATION ( #46, #151 ) ;
#188 = PERSON_AND_ORGANIZATION ( #46, #151 ) ;
#189 = UNCERTAINTY_MEASURE_WITH_UNIT (LENGTH_MEASURE( 1.000000000000000082E-05 ), #63, 'distance_accuracy_value', 'NONE');
#190 = DATE_TIME_ROLE ( 'creation_date' ) ;
#191 = CALENDAR_DATE ( 2021, 10, 11 ) ;
#192 = AXIS2_PLACEMENT_3D ( 'NONE', #96, #108, #12 ) ;
#193 = AXIS2_PLACEMENT_3D ( 'NONE', #149, #167, #53 ) ;
#194 = ORIENTED_EDGE ( 'NONE', *, *, #243, .F. ) ;
#195 = APPLICATION_CONTEXT ( 'configuration controlled 3d designs of mechanical parts and assemblies' ) ;
#196 = CARTESIAN_POINT ( 'NONE',  ( -6.413803915257457113E-31, 2.249659577954772199E-32, -1.836986451539393076E-16 ) ) ;
#197 = CC_DESIGN_APPROVAL ( #229, ( #30 ) ) ;
#198 = CARTESIAN_POINT ( 'NONE',  ( 1.849949060385871969E-14, 0.0000000000000000000, 5.298464694068316660 ) ) ;
#199 = PRODUCT_RELATED_PRODUCT_CATEGORY ( 'detail', '', ( #27 ) ) ;
#200 = DIRECTION ( 'NONE',  ( 0.0000000000000000000, 1.000000000000000000, 0.0000000000000000000 ) ) ;
#201 = CARTESIAN_POINT ( 'NONE',  ( 1.326762908760390423E-13, -4.653657836759941941E-15, 38.00000000000000000 ) ) ;
#202 = DIRECTION ( 'NONE',  ( 0.0000000000000000000, 1.000000000000000000, 0.0000000000000000000 ) ) ;
#203 = DIRECTION ( 'NONE',  ( -4.275831445896958607E-31, -1.000000000000000000, -1.224646799147353207E-16 ) ) ;
#204 = MANIFOLD_SOLID_BREP ( 'Corps-Déplacer/Copier1[1]', #137 ) ;
#205 = CARTESIAN_POINT ( 'NONE',  ( 1.326762908760390423E-13, -4.653657836759941941E-15, 38.00000000000000000 ) ) ;
#206 = COORDINATED_UNIVERSAL_TIME_OFFSET ( 1, 0, .AHEAD. ) ;
#207 = CALENDAR_DATE ( 2021, 10, 11 ) ;
#208 = AXIS2_PLACEMENT_3D ( 'NONE', #48, #132, #47 ) ;
#209 = CARTESIAN_POINT ( 'NONE',  ( 0.0000000000000000000, 0.0000000000000000000, 0.0000000000000000000 ) ) ;
#210 = CC_DESIGN_PERSON_AND_ORGANIZATION_ASSIGNMENT ( #188, #99, ( #169 ) ) ;
#211 = APPROVAL_ROLE ( '' ) ;
#212 = EDGE_LOOP ( 'NONE', ( #131 ) ) ;
#213 = CIRCLE ( 'NONE', #208, 0.3249999999999997891 ) ;
#214 = EDGE_LOOP ( 'NONE', ( #65 ) ) ;
#215 = CARTESIAN_POINT ( 'NONE',  ( 2.269462870248035498E-15, -9.396418828207728103E-17, 0.6499999999999996891 ) ) ;
#216 = CARTESIAN_POINT ( 'NONE',  ( 0.3250000000000000111, 0.0000000000000000000, -1.134731435124018340E-15 ) ) ;
#217 = ADVANCED_FACE ( 'NONE', ( #159, #89 ), #91, .T. ) ;
#218 = DIRECTION ( 'NONE',  ( 4.275831445896958607E-31, 1.000000000000000000, 1.224646799147353207E-16 ) ) ;
#219 = FACE_OUTER_BOUND ( 'NONE', #176, .T. ) ;
#220 = EDGE_LOOP ( 'NONE', ( #88 ) ) ;
#221 = DIRECTION ( 'NONE',  ( 3.491481338843133355E-15, -0.0000000000000000000, 1.000000000000000000 ) ) ;
#222 = EDGE_LOOP ( 'NONE', ( #26 ) ) ;
#223 = CLOSED_SHELL ( 'NONE', ( #122, #217, #183 ) ) ;
#224 = CALENDAR_DATE ( 2021, 10, 11 ) ;
#225 = COORDINATED_UNIVERSAL_TIME_OFFSET ( 1, 0, .AHEAD. ) ;
#226 = PRODUCT_DEFINITION ( 'UNKNOWN', '', #169, #4 ) ;
#227 = EDGE_CURVE ( 'NONE', #113, #113, #121, .T. ) ;
#228 = DATE_AND_TIME ( #21, #157 ) ;
#229 = APPROVAL ( #60, 'UNSPECIFIED' ) ;
#230 = CONICAL_SURFACE ( 'NONE', #173, 1.199999999999998845, 0.7853981633974450594 ) ;
#231 = CARTESIAN_POINT ( 'NONE',  ( 0.3931483474218638308, 0.0000000000000000000, 1.167638090205026735 ) ) ;
#232 = EDGE_LOOP ( 'NONE', ( #144 ) ) ;
#233 = VERTEX_POINT ( 'NONE', #236 ) ;
#234 = LOCAL_TIME ( 8, 14, 21.00000000000000000, #139 ) ;
#235 = EDGE_LOOP ( 'NONE', ( #50 ) ) ;
#236 = CARTESIAN_POINT ( 'NONE',  ( 1.326762908760390423E-13, 1.199999999999994182, 38.00000000000000000 ) ) ;
#237 = CARTESIAN_POINT ( 'NONE',  ( 2.269462870248035498E-15, -9.396418828207728103E-17, 0.6499999999999996891 ) ) ;
#238 = FACE_OUTER_BOUND ( 'NONE', #212, .T. ) ;
#239 = DIRECTION ( 'NONE',  ( -3.491481338843133355E-15, 1.224646799147353207E-16, -1.000000000000000000 ) ) ;
#240 = DIRECTION ( 'NONE',  ( 3.491481338843133355E-15, -0.0000000000000000000, 1.000000000000000000 ) ) ;
#241 = CC_DESIGN_APPROVAL ( #83, ( #169 ) ) ;
#242 = DIRECTION ( 'NONE',  ( 0.0000000000000000000, 0.0000000000000000000, 1.000000000000000000 ) ) ;
#243 = EDGE_CURVE ( 'NONE', #146, #146, #106, .T. ) ;
ENDSEC;
END-ISO-10303-21;
