ISO-10303-21;
HEADER;
FILE_DESCRIPTION (( 'STEP AP203' ),
    '1' );
FILE_NAME ('64361.step',
    '2021-11-10T07:14:21',
    ( '' ),
    ( '' ),
    'SwSTEP 2.0',
    'SolidWorks 2019',
    '' );
FILE_SCHEMA (( 'CONFIG_CONTROL_DESIGN' ));
ENDSEC;

DATA;
#1 = APPROVAL_ROLE ( '' ) ;
#2 = EDGE_LOOP ( 'NONE', ( #229 ) ) ;
#3 = AXIS2_PLACEMENT_3D ( 'NONE', #184, #93, #204 ) ;
#4 = EDGE_LOOP ( 'NONE', ( #42 ) ) ;
#5 = EDGE_LOOP ( 'NONE', ( #115 ) ) ;
#6 = PLANE ( 'NONE',  #105 ) ;
#7 =( NAMED_UNIT ( * ) SI_UNIT ( $, .STERADIAN. ) SOLID_ANGLE_UNIT ( ) );
#8 = PERSON_AND_ORGANIZATION ( #242, #88 ) ;
#9 = DIRECTION ( 'NONE',  ( 3.491481338843133355E-15, -1.224646799147353207E-16, 1.000000000000000000 ) ) ;
#10 = AXIS2_PLACEMENT_3D ( 'NONE', #171, #207, #21 ) ;
#11 = APPROVAL_DATE_TIME ( #219, #128 ) ;
#12 = LOCAL_TIME ( 8, 14, 21.00000000000000000, #183 ) ;
#13 = MECHANICAL_CONTEXT ( 'NONE', #49, 'mechanical' ) ;
#14 = EDGE_CURVE ( 'NONE', #158, #158, #224, .T. ) ;
#15 = APPROVAL_ROLE ( '' ) ;
#16 = AXIS2_PLACEMENT_3D ( 'NONE', #206, #74, #228 ) ;
#17 = PRODUCT_DEFINITION_FORMATION_WITH_SPECIFIED_SOURCE ( 'ANY', '', #33, .NOT_KNOWN. ) ;
#18 = EDGE_LOOP ( 'NONE', ( #54 ) ) ;
#19 = EDGE_CURVE ( 'NONE', #236, #236, #146, .T. ) ;
#20 = EDGE_LOOP ( 'NONE', ( #208 ) ) ;
#21 = DIRECTION ( 'NONE',  ( 1.000000000000000000, 0.0000000000000000000, -3.614007241618349165E-15 ) ) ;
#22 = ORIENTED_EDGE ( 'NONE', *, *, #55, .T. ) ;
#23 = DIRECTION ( 'NONE',  ( -3.491481338843133355E-15, 1.224646799147353207E-16, -1.000000000000000000 ) ) ;
#24 = PERSON_AND_ORGANIZATION ( #242, #88 ) ;
#25 = CARTESIAN_POINT ( 'NONE',  ( 0.2999999999999999334, 0.0000000000000000000, -1.047444401652939612E-15 ) ) ;
#26 = PERSON_AND_ORGANIZATION_ROLE ( 'classification_officer' ) ;
#27 = CARTESIAN_POINT ( 'NONE',  ( 1.316288464743861212E-13, -4.616918432785521081E-15, 37.69999999999999574 ) ) ;
#28 = DATE_AND_TIME ( #222, #38 ) ;
#29 = UNCERTAINTY_MEASURE_WITH_UNIT (LENGTH_MEASURE( 1.000000000000000082E-05 ), #175, 'distance_accuracy_value', 'NONE');
#30 = CARTESIAN_POINT ( 'NONE',  ( 1.326762908760390423E-13, -4.653657836759941941E-15, 38.00000000000000000 ) ) ;
#31 = FACE_OUTER_BOUND ( 'NONE', #4, .T. ) ;
#32 = APPROVAL_PERSON_ORGANIZATION ( #216, #128, #65 ) ;
#33 = PRODUCT ( '64361', '64361', '', ( #13 ) ) ;
#34 = DATE_AND_TIME ( #70, #240 ) ;
#35 = PERSON_AND_ORGANIZATION ( #242, #88 ) ;
#36 = CC_DESIGN_DATE_AND_TIME_ASSIGNMENT ( #28, #234, ( #114 ) ) ;
#37 = PLANE ( 'NONE',  #50 ) ;
#38 = LOCAL_TIME ( 8, 14, 21.00000000000000000, #195 ) ;
#39 = FACE_OUTER_BOUND ( 'NONE', #132, .T. ) ;
#40 = ORIENTED_EDGE ( 'NONE', *, *, #19, .F. ) ;
#41 = CARTESIAN_POINT ( 'NONE',  ( 1.865067618067259806E-14, 0.0000000000000000000, 5.341765964257540134 ) ) ;
#42 = ORIENTED_EDGE ( 'NONE', *, *, #238, .F. ) ;
#43 =( NAMED_UNIT ( * ) PLANE_ANGLE_UNIT ( ) SI_UNIT ( $, .RADIAN. ) );
#44 = CARTESIAN_POINT ( 'NONE',  ( 1.500000000000014877, 0.0000000000000000000, 5.341765964257534804 ) ) ;
#45 = CYLINDRICAL_SURFACE ( 'NONE', #209, 1.499999999999996225 ) ;
#46 = COORDINATED_UNIVERSAL_TIME_OFFSET ( 1, 0, .AHEAD. ) ;
#47 = AXIS2_PLACEMENT_3D ( 'NONE', #172, #23, #138 ) ;
#48 = PRODUCT_RELATED_PRODUCT_CATEGORY ( 'detail', '', ( #33 ) ) ;
#49 = APPLICATION_CONTEXT ( 'configuration controlled 3d designs of mechanical parts and assemblies' ) ;
#50 = AXIS2_PLACEMENT_3D ( 'NONE', #112, #110, #180 ) ;
#51 = DIRECTION ( 'NONE',  ( 1.000000000000000000, 0.0000000000000000000, -3.491481338843132961E-15 ) ) ;
#52 = FACE_OUTER_BOUND ( 'NONE', #18, .T. ) ;
#53 = CARTESIAN_POINT ( 'NONE',  ( 2.094888803305877252E-15, 0.0000000000000000000, 0.5999999999999992006 ) ) ;
#54 = ORIENTED_EDGE ( 'NONE', *, *, #14, .F. ) ;
#55 = EDGE_CURVE ( 'NONE', #83, #83, #193, .T. ) ;
#56 = EDGE_LOOP ( 'NONE', ( #40 ) ) ;
#57 = PERSON_AND_ORGANIZATION ( #242, #88 ) ;
#58 = LOCAL_TIME ( 8, 14, 21.00000000000000000, #80 ) ;
#59 = DIRECTION ( 'NONE',  ( 0.0000000000000000000, 1.000000000000000000, 0.0000000000000000000 ) ) ;
#60 = FACE_OUTER_BOUND ( 'NONE', #5, .T. ) ;
#61 = CALENDAR_DATE ( 2021, 10, 11 ) ;
#62 = DATE_TIME_ROLE ( 'creation_date' ) ;
#63 = CONICAL_SURFACE ( 'NONE', #197, 1.199999999999998845, 0.7853981633974450594 ) ;
#64 = VERTEX_POINT ( 'NONE', #187 ) ;
#65 = APPROVAL_ROLE ( '' ) ;
#66 = APPROVAL_PERSON_ORGANIZATION ( #35, #214, #15 ) ;
#67 = DIRECTION ( 'NONE',  ( 3.491481338843133355E-15, -0.0000000000000000000, 1.000000000000000000 ) ) ;
#68 = CC_DESIGN_DATE_AND_TIME_ASSIGNMENT ( #173, #62, ( #90 ) ) ;
#69 = EDGE_CURVE ( 'NONE', #64, #64, #159, .T. ) ;
#70 = CALENDAR_DATE ( 2021, 10, 11 ) ;
#71 = PERSON_AND_ORGANIZATION_ROLE ( 'design_owner' ) ;
#72 = DIRECTION ( 'NONE',  ( 1.000000000000000000, 0.0000000000000000000, -3.469446951953622866E-15 ) ) ;
#73 = DIRECTION ( 'NONE',  ( 3.491481338843133355E-15, -0.0000000000000000000, 1.000000000000000000 ) ) ;
#74 = DIRECTION ( 'NONE',  ( -3.491481338843133355E-15, 1.224646799147353207E-16, -1.000000000000000000 ) ) ;
#75 = CC_DESIGN_SECURITY_CLASSIFICATION ( #114, ( #17 ) ) ;
#76 = ORIENTED_EDGE ( 'NONE', *, *, #19, .T. ) ;
#77 = CARTESIAN_POINT ( 'NONE',  ( -6.413803915257457113E-31, 2.249659577954772199E-32, -1.836986451539393076E-16 ) ) ;
#78 = PLANE ( 'NONE',  #47 ) ;
#79 = EDGE_CURVE ( 'NONE', #235, #235, #127, .T. ) ;
#80 = COORDINATED_UNIVERSAL_TIME_OFFSET ( 1, 0, .AHEAD. ) ;
#81 = APPLICATION_PROTOCOL_DEFINITION ( 'international standard', 'config_control_design', 1994, #49 ) ;
#82 = DESIGN_CONTEXT ( 'detailed design', #89, 'design' ) ;
#83 = VERTEX_POINT ( 'NONE', #25 ) ;
#84 = CALENDAR_DATE ( 2021, 10, 11 ) ;
#85 = CARTESIAN_POINT ( 'NONE',  ( 0.0000000000000000000, 0.0000000000000000000, 0.0000000000000000000 ) ) ;
#86 = DATE_AND_TIME ( #84, #12 ) ;
#87 = AXIS2_PLACEMENT_3D ( 'NONE', #41, #113, #72 ) ;
#88 = ORGANIZATION ( 'UNSPECIFIED', 'UNSPECIFIED', '' ) ;
#89 = APPLICATION_CONTEXT ( 'configuration controlled 3d designs of mechanical parts and assemblies' ) ;
#90 = PRODUCT_DEFINITION ( 'UNKNOWN', '', #17, #82 ) ;
#91 = ORIENTED_EDGE ( 'NONE', *, *, #14, .T. ) ;
#92 = DIRECTION ( 'NONE',  ( 0.0000000000000000000, 0.0000000000000000000, 1.000000000000000000 ) ) ;
#93 = DIRECTION ( 'NONE',  ( 3.491481338843133355E-15, -0.0000000000000000000, 1.000000000000000000 ) ) ;
#94 = CONICAL_SURFACE ( 'NONE', #95, 1.499999999999996225, 0.2617993877991429130 ) ;
#95 = AXIS2_PLACEMENT_3D ( 'NONE', #212, #67, #176 ) ;
#96 = CC_DESIGN_APPROVAL ( #181, ( #17 ) ) ;
#97 = EDGE_LOOP ( 'NONE', ( #182 ) ) ;
#98 = EDGE_LOOP ( 'NONE', ( #167 ) ) ;
#99 = CARTESIAN_POINT ( 'NONE',  ( 2.094888803305878830E-15, -8.673617379884057659E-17, 0.5999999999999997558 ) ) ;
#100 = CALENDAR_DATE ( 2021, 10, 11 ) ;
#101 = CARTESIAN_POINT ( 'NONE',  ( 1.316288464743861212E-13, 1.499999999999994005, 37.69999999999999574 ) ) ;
#102 = DIRECTION ( 'NONE',  ( -3.491481338843133355E-15, 1.224646799147353207E-16, -1.000000000000000000 ) ) ;
#103 = DIRECTION ( 'NONE',  ( -3.491481338843133355E-15, 1.224646799147353207E-16, -1.000000000000000000 ) ) ;
#104 = CC_DESIGN_PERSON_AND_ORGANIZATION_ASSIGNMENT ( #57, #26, ( #114 ) ) ;
#105 = AXIS2_PLACEMENT_3D ( 'NONE', #77, #155, #232 ) ;
#106 = DIRECTION ( 'NONE',  ( 0.0000000000000000000, 1.000000000000000000, 0.0000000000000000000 ) ) ;
#107 = APPROVAL_DATE_TIME ( #34, #214 ) ;
#108 = AXIS2_PLACEMENT_3D ( 'NONE', #53, #73, #148 ) ;
#109 = APPROVAL_STATUS ( 'not_yet_approved' ) ;
#110 = DIRECTION ( 'NONE',  ( 3.491481338843133355E-15, -1.224646799147353207E-16, 1.000000000000000000 ) ) ;
#111 = FACE_OUTER_BOUND ( 'NONE', #98, .T. ) ;
#112 = CARTESIAN_POINT ( 'NONE',  ( 2.094888803305878830E-15, -8.673617379884057659E-17, 0.5999999999999997558 ) ) ;
#113 = DIRECTION ( 'NONE',  ( 3.491481338843133355E-15, -0.0000000000000000000, 1.000000000000000000 ) ) ;
#114 = SECURITY_CLASSIFICATION ( '', '', #166 ) ;
#115 = ORIENTED_EDGE ( 'NONE', *, *, #149, .F. ) ;
#116 = PERSON_AND_ORGANIZATION ( #242, #88 ) ;
#117 = DIRECTION ( 'NONE',  ( -3.491481338843133355E-15, 1.224646799147353207E-16, -1.000000000000000000 ) ) ;
#118 = FACE_OUTER_BOUND ( 'NONE', #150, .T. ) ;
#119 = AXIS2_PLACEMENT_3D ( 'NONE', #147, #226, #51 ) ;
#120 = ADVANCED_FACE ( 'NONE', ( #243 ), #37, .T. ) ;
#121 = APPROVAL_PERSON_ORGANIZATION ( #8, #181, #1 ) ;
#122 = CARTESIAN_POINT ( 'NONE',  ( 0.3681483474218638641, 0.0000000000000000000, 1.117638090205026913 ) ) ;
#123 = MANIFOLD_SOLID_BREP ( 'Corps-Déplacer/Copier1[2]', #131 ) ;
#124 = FACE_OUTER_BOUND ( 'NONE', #165, .T. ) ;
#125 = DIRECTION ( 'NONE',  ( 1.000000000000000000, 0.0000000000000000000, -3.491481338843133355E-15 ) ) ;
#126 = MANIFOLD_SOLID_BREP ( 'Corps-Déplacer/Copier1[1]', #203 ) ;
#127 = CIRCLE ( 'NONE', #239, 0.3681483474218599228 ) ;
#128 = APPROVAL ( #144, 'UNSPECIFIED' ) ;
#129 = DIRECTION ( 'NONE',  ( 3.491481338843133355E-15, -0.0000000000000000000, 1.000000000000000000 ) ) ;
#130 = CYLINDRICAL_SURFACE ( 'NONE', #3, 0.2999999999999999334 ) ;
#131 = CLOSED_SHELL ( 'NONE', ( #120, #154, #202 ) ) ;
#132 = EDGE_LOOP ( 'NONE', ( #186 ) ) ;
#133 = EDGE_LOOP ( 'NONE', ( #230 ) ) ;
#134 = ORIENTED_EDGE ( 'NONE', *, *, #55, .F. ) ;
#135 = VERTEX_POINT ( 'NONE', #190 ) ;
#136 = CC_DESIGN_PERSON_AND_ORGANIZATION_ASSIGNMENT ( #196, #71, ( #33 ) ) ;
#137 = PERSON_AND_ORGANIZATION_ROLE ( 'creator' ) ;
#138 = DIRECTION ( 'NONE',  ( 4.275831445896958607E-31, 1.000000000000000000, 1.224646799147353207E-16 ) ) ;
#139 = CARTESIAN_POINT ( 'NONE',  ( 0.0000000000000000000, 0.0000000000000000000, 0.0000000000000000000 ) ) ;
#140 = TOROIDAL_SURFACE ( 'NONE', #198, 2.299999999999999822, 2.000000000000000000 ) ;
#141 = DIRECTION ( 'NONE',  ( -4.275831445896958607E-31, -1.000000000000000000, -1.224646799147353207E-16 ) ) ;
#142 = PLANE ( 'NONE',  #156 ) ;
#143 = AXIS2_PLACEMENT_3D ( 'NONE', #85, #92, #152 ) ;
#144 = APPROVAL_STATUS ( 'not_yet_approved' ) ;
#145 = CC_DESIGN_PERSON_AND_ORGANIZATION_ASSIGNMENT ( #24, #213, ( #17 ) ) ;
#146 = CIRCLE ( 'NONE', #87, 1.499999999999996225 ) ;
#147 = CARTESIAN_POINT ( 'NONE',  ( 0.0000000000000000000, 0.0000000000000000000, 0.0000000000000000000 ) ) ;
#148 = DIRECTION ( 'NONE',  ( 1.000000000000000000, 0.0000000000000000000, -3.614007241618349165E-15 ) ) ;
#149 = EDGE_CURVE ( 'NONE', #135, #135, #178, .T. ) ;
#150 = EDGE_LOOP ( 'NONE', ( #134 ) ) ;
#151 = AXIS2_PLACEMENT_3D ( 'NONE', #27, #117, #59 ) ;
#152 = DIRECTION ( 'NONE',  ( 1.000000000000000000, 0.0000000000000000000, 0.0000000000000000000 ) ) ;
#153 = EDGE_LOOP ( 'NONE', ( #22 ) ) ;
#154 = ADVANCED_FACE ( 'NONE', ( #227, #52 ), #130, .T. ) ;
#155 = DIRECTION ( 'NONE',  ( 3.491481338843133355E-15, -1.224646799147353207E-16, 1.000000000000000000 ) ) ;
#156 = AXIS2_PLACEMENT_3D ( 'NONE', #99, #9, #141 ) ;
#157 = DIRECTION ( 'NONE',  ( 3.491481338843133355E-15, -0.0000000000000000000, 1.000000000000000000 ) ) ;
#158 = VERTEX_POINT ( 'NONE', #215 ) ;
#159 = CIRCLE ( 'NONE', #16, 1.199999999999998845 ) ;
#160 = FACE_BOUND ( 'NONE', #20, .T. ) ;
#161 = APPROVAL_DATE_TIME ( #86, #181 ) ;
#162 = ADVANCED_FACE ( 'NONE', ( #39, #111 ), #140, .F. ) ;
#163 = ADVANCED_FACE ( 'NONE', ( #60 ), #142, .F. ) ;
#164 = CARTESIAN_POINT ( 'NONE',  ( 3.902212535531134027E-15, 0.0000000000000000000, 1.117638090205028245 ) ) ;
#165 = EDGE_LOOP ( 'NONE', ( #76 ) ) ;
#166 = SECURITY_CLASSIFICATION_LEVEL ( 'unclassified' ) ;
#167 = ORIENTED_EDGE ( 'NONE', *, *, #79, .F. ) ;
#168 =( GEOMETRIC_REPRESENTATION_CONTEXT ( 3 ) GLOBAL_UNCERTAINTY_ASSIGNED_CONTEXT ( ( #29 ) ) GLOBAL_UNIT_ASSIGNED_CONTEXT ( ( #175, #43, #7 ) ) REPRESENTATION_CONTEXT ( 'NONE', 'WORKASPACE' ) );
#169 = EDGE_LOOP ( 'NONE', ( #91 ) ) ;
#170 = CC_DESIGN_PERSON_AND_ORGANIZATION_ASSIGNMENT ( #116, #231, ( #17 ) ) ;
#171 = CARTESIAN_POINT ( 'NONE',  ( 2.094888803305877252E-15, 0.0000000000000000000, 0.5999999999999992006 ) ) ;
#172 = CARTESIAN_POINT ( 'NONE',  ( 1.326762908760390423E-13, 8.998558695971069014E-33, 38.00000000000000000 ) ) ;
#173 = DATE_AND_TIME ( #100, #58 ) ;
#174 = ADVANCED_FACE ( 'NONE', ( #191 ), #78, .F. ) ;
#175 =( LENGTH_UNIT ( ) NAMED_UNIT ( * ) SI_UNIT ( .MILLI., .METRE. ) );
#176 = DIRECTION ( 'NONE',  ( 1.000000000000000000, 0.0000000000000000000, -3.469446951953622866E-15 ) ) ;
#177 = SHAPE_DEFINITION_REPRESENTATION ( #237, #223 ) ;
#178 = CIRCLE ( 'NONE', #108, 0.2999999999999999334 ) ;
#179 = CC_DESIGN_APPROVAL ( #128, ( #114 ) ) ;
#180 = DIRECTION ( 'NONE',  ( -4.275831445896958607E-31, -1.000000000000000000, -1.224646799147353207E-16 ) ) ;
#181 = APPROVAL ( #217, 'UNSPECIFIED' ) ;
#182 = ORIENTED_EDGE ( 'NONE', *, *, #238, .T. ) ;
#183 = COORDINATED_UNIVERSAL_TIME_OFFSET ( 1, 0, .AHEAD. ) ;
#184 = CARTESIAN_POINT ( 'NONE',  ( -1.786038389295302186E-30, 0.0000000000000000000, -5.115417256925931626E-16 ) ) ;
#185 = ADVANCED_FACE ( 'NONE', ( #220, #124 ), #45, .T. ) ;
#186 = ORIENTED_EDGE ( 'NONE', *, *, #149, .T. ) ;
#187 = CARTESIAN_POINT ( 'NONE',  ( 1.326762908760390423E-13, 1.199999999999994182, 38.00000000000000000 ) ) ;
#188 = ADVANCED_FACE ( 'NONE', ( #31, #160 ), #63, .T. ) ;
#189 = FACE_BOUND ( 'NONE', #2, .T. ) ;
#190 = CARTESIAN_POINT ( 'NONE',  ( 0.3000000000000020428, 0.0000000000000000000, 0.5999999999999980904 ) ) ;
#191 = FACE_OUTER_BOUND ( 'NONE', #133, .T. ) ;
#192 = DIRECTION ( 'NONE',  ( 4.275831445896958607E-31, 1.000000000000000000, 1.224646799147353207E-16 ) ) ;
#193 = CIRCLE ( 'NONE', #119, 0.2999999999999999334 ) ;
#194 = APPLICATION_PROTOCOL_DEFINITION ( 'international standard', 'config_control_design', 1994, #89 ) ;
#195 = COORDINATED_UNIVERSAL_TIME_OFFSET ( 1, 0, .AHEAD. ) ;
#196 = PERSON_AND_ORGANIZATION ( #242, #88 ) ;
#197 = AXIS2_PLACEMENT_3D ( 'NONE', #30, #102, #106 ) ;
#198 = AXIS2_PLACEMENT_3D ( 'NONE', #233, #157, #125 ) ;
#199 = LOCAL_TIME ( 8, 14, 21.00000000000000000, #46 ) ;
#200 = ADVANCED_FACE ( 'NONE', ( #189, #218 ), #94, .T. ) ;
#201 = DIRECTION ( 'NONE',  ( 1.000000000000000000, 0.0000000000000000000, -3.534017240859009068E-15 ) ) ;
#202 = ADVANCED_FACE ( 'NONE', ( #118 ), #6, .F. ) ;
#203 = CLOSED_SHELL ( 'NONE', ( #185, #188, #174, #162, #200, #163 ) ) ;
#204 = DIRECTION ( 'NONE',  ( 1.000000000000000000, 0.0000000000000000000, -3.491481338843132961E-15 ) ) ;
#205 = CIRCLE ( 'NONE', #151, 1.499999999999998446 ) ;
#206 = CARTESIAN_POINT ( 'NONE',  ( 1.326762908760390423E-13, -4.653657836759941941E-15, 38.00000000000000000 ) ) ;
#207 = DIRECTION ( 'NONE',  ( 3.491481338843133355E-15, -0.0000000000000000000, 1.000000000000000000 ) ) ;
#208 = ORIENTED_EDGE ( 'NONE', *, *, #69, .T. ) ;
#209 = AXIS2_PLACEMENT_3D ( 'NONE', #139, #103, #192 ) ;
#210 = CC_DESIGN_APPROVAL ( #214, ( #90 ) ) ;
#211 = VERTEX_POINT ( 'NONE', #101 ) ;
#212 = CARTESIAN_POINT ( 'NONE',  ( 1.865067618067259806E-14, 0.0000000000000000000, 5.341765964257540134 ) ) ;
#213 = PERSON_AND_ORGANIZATION_ROLE ( 'creator' ) ;
#214 = APPROVAL ( #109, 'UNSPECIFIED' ) ;
#215 = CARTESIAN_POINT ( 'NONE',  ( 0.3000000000000020428, 0.0000000000000000000, 0.5999999999999980904 ) ) ;
#216 = PERSON_AND_ORGANIZATION ( #242, #88 ) ;
#217 = APPROVAL_STATUS ( 'not_yet_approved' ) ;
#218 = FACE_OUTER_BOUND ( 'NONE', #56, .T. ) ;
#219 = DATE_AND_TIME ( #61, #199 ) ;
#220 = FACE_OUTER_BOUND ( 'NONE', #97, .T. ) ;
#221 = CC_DESIGN_PERSON_AND_ORGANIZATION_ASSIGNMENT ( #225, #137, ( #90 ) ) ;
#222 = CALENDAR_DATE ( 2021, 10, 11 ) ;
#223 = ADVANCED_BREP_SHAPE_REPRESENTATION ( '64361', ( #126, #123, #143 ), #168 ) ;
#224 = CIRCLE ( 'NONE', #10, 0.2999999999999999334 ) ;
#225 = PERSON_AND_ORGANIZATION ( #242, #88 ) ;
#226 = DIRECTION ( 'NONE',  ( 3.491481338843133355E-15, -0.0000000000000000000, 1.000000000000000000 ) ) ;
#227 = FACE_OUTER_BOUND ( 'NONE', #153, .T. ) ;
#228 = DIRECTION ( 'NONE',  ( 0.0000000000000000000, 1.000000000000000000, 0.0000000000000000000 ) ) ;
#229 = ORIENTED_EDGE ( 'NONE', *, *, #79, .T. ) ;
#230 = ORIENTED_EDGE ( 'NONE', *, *, #69, .F. ) ;
#231 = PERSON_AND_ORGANIZATION_ROLE ( 'design_supplier' ) ;
#232 = DIRECTION ( 'NONE',  ( -4.275831445896958607E-31, -1.000000000000000000, -1.224646799147353207E-16 ) ) ;
#233 = CARTESIAN_POINT ( 'NONE',  ( 2.094888803305878041E-15, 0.0000000000000000000, 0.5999999999999994227 ) ) ;
#234 = DATE_TIME_ROLE ( 'classification_date' ) ;
#235 = VERTEX_POINT ( 'NONE', #122 ) ;
#236 = VERTEX_POINT ( 'NONE', #44 ) ;
#237 = PRODUCT_DEFINITION_SHAPE ( 'NONE', 'NONE',  #90 ) ;
#238 = EDGE_CURVE ( 'NONE', #211, #211, #205, .T. ) ;
#239 = AXIS2_PLACEMENT_3D ( 'NONE', #164, #129, #201 ) ;
#240 = LOCAL_TIME ( 8, 14, 21.00000000000000000, #241 ) ;
#241 = COORDINATED_UNIVERSAL_TIME_OFFSET ( 1, 0, .AHEAD. ) ;
#242 = PERSON ( 'UNSPECIFIED', 'UNSPECIFIED', 'UNSPECIFIED', ('UNSPECIFIED'), ('UNSPECIFIED'), ('UNSPECIFIED') ) ;
#243 = FACE_OUTER_BOUND ( 'NONE', #169, .T. ) ;
ENDSEC;
END-ISO-10303-21;
