ISO-10303-21;
HEADER;
FILE_DESCRIPTION (( 'STEP AP203' ),
    '1' );
FILE_NAME ('64360.step',
    '2021-11-10T07:14:20',
    ( '' ),
    ( '' ),
    'SwSTEP 2.0',
    'SolidWorks 2019',
    '' );
FILE_SCHEMA (( 'CONFIG_CONTROL_DESIGN' ));
ENDSEC;

DATA;
#1 = PERSON_AND_ORGANIZATION_ROLE ( 'design_owner' ) ;
#2 = CIRCLE ( 'NONE', #136, 1.199999999999998845 ) ;
#3 = PERSON_AND_ORGANIZATION_ROLE ( 'classification_officer' ) ;
#4 = SHAPE_DEFINITION_REPRESENTATION ( #89, #130 ) ;
#5 = EDGE_LOOP ( 'NONE', ( #69 ) ) ;
#6 = AXIS2_PLACEMENT_3D ( 'NONE', #9, #68, #215 ) ;
#7 = CARTESIAN_POINT ( 'NONE',  ( 1.880186175748647959E-14, 0.0000000000000000000, 5.385067234446765383 ) ) ;
#8 = PLANE ( 'NONE',  #78 ) ;
#9 = CARTESIAN_POINT ( 'NONE',  ( 3.727638468588976571E-15, 0.0000000000000000000, 1.067638090205027979 ) ) ;
#10 = CC_DESIGN_DATE_AND_TIME_ASSIGNMENT ( #129, #63, ( #97 ) ) ;
#11 = PERSON ( 'UNSPECIFIED', 'UNSPECIFIED', 'UNSPECIFIED', ('UNSPECIFIED'), ('UNSPECIFIED'), ('UNSPECIFIED') ) ;
#12 = FACE_OUTER_BOUND ( 'NONE', #211, .T. ) ;
#13 = DIRECTION ( 'NONE',  ( 1.000000000000000000, 0.0000000000000000000, -3.469446951953622866E-15 ) ) ;
#14 = CARTESIAN_POINT ( 'NONE',  ( 0.2750000000000000777, 0.0000000000000000000, -9.601573681818620671E-16 ) ) ;
#15 = CARTESIAN_POINT ( 'NONE',  ( 1.326762908760390423E-13, 1.199999999999994182, 38.00000000000000000 ) ) ;
#16 = CARTESIAN_POINT ( 'NONE',  ( 1.920314736363720979E-15, 0.0000000000000000000, 0.5499999999999992673 ) ) ;
#17 = DIRECTION ( 'NONE',  ( 3.491481338843133355E-15, -0.0000000000000000000, 1.000000000000000000 ) ) ;
#18 = APPROVAL ( #109, 'UNSPECIFIED' ) ;
#19 = CARTESIAN_POINT ( 'NONE',  ( 0.0000000000000000000, 0.0000000000000000000, 0.0000000000000000000 ) ) ;
#20 = DATE_AND_TIME ( #208, #236 ) ;
#21 = ADVANCED_FACE ( 'NONE', ( #190 ), #8, .T. ) ;
#22 = CALENDAR_DATE ( 2021, 10, 11 ) ;
#23 = MECHANICAL_CONTEXT ( 'NONE', #102, 'mechanical' ) ;
#24 = CIRCLE ( 'NONE', #157, 1.499999999999996225 ) ;
#25 = DATE_AND_TIME ( #169, #52 ) ;
#26 = APPROVAL_STATUS ( 'not_yet_approved' ) ;
#27 = PRODUCT_RELATED_PRODUCT_CATEGORY ( 'detail', '', ( #227 ) ) ;
#28 = ORIENTED_EDGE ( 'NONE', *, *, #179, .T. ) ;
#29 =( GEOMETRIC_REPRESENTATION_CONTEXT ( 3 ) GLOBAL_UNCERTAINTY_ASSIGNED_CONTEXT ( ( #209 ) ) GLOBAL_UNIT_ASSIGNED_CONTEXT ( ( #101, #239, #74 ) ) REPRESENTATION_CONTEXT ( 'NONE', 'WORKASPACE' ) );
#30 = DIRECTION ( 'NONE',  ( -4.275831445896958607E-31, -1.000000000000000000, -1.224646799147353207E-16 ) ) ;
#31 = ORIENTED_EDGE ( 'NONE', *, *, #235, .F. ) ;
#32 = DIRECTION ( 'NONE',  ( -3.491481338843133355E-15, 1.224646799147353207E-16, -1.000000000000000000 ) ) ;
#33 = EDGE_LOOP ( 'NONE', ( #216 ) ) ;
#34 = VERTEX_POINT ( 'NONE', #220 ) ;
#35 = VERTEX_POINT ( 'NONE', #105 ) ;
#36 = DIRECTION ( 'NONE',  ( 1.000000000000000000, 0.0000000000000000000, -3.491481338843133750E-15 ) ) ;
#37 = LOCAL_TIME ( 8, 14, 20.00000000000000000, #44 ) ;
#38 = FACE_BOUND ( 'NONE', #70, .T. ) ;
#39 = DIRECTION ( 'NONE',  ( 3.491481338843133355E-15, -0.0000000000000000000, 1.000000000000000000 ) ) ;
#40 = APPROVAL_ROLE ( '' ) ;
#41 = AXIS2_PLACEMENT_3D ( 'NONE', #218, #17, #201 ) ;
#42 = ORGANIZATION ( 'UNSPECIFIED', 'UNSPECIFIED', '' ) ;
#43 = DATE_AND_TIME ( #111, #199 ) ;
#44 = COORDINATED_UNIVERSAL_TIME_OFFSET ( 1, 0, .AHEAD. ) ;
#45 = EDGE_LOOP ( 'NONE', ( #31 ) ) ;
#46 = CARTESIAN_POINT ( 'NONE',  ( 1.326762908760390423E-13, 8.998558695971069014E-33, 38.00000000000000000 ) ) ;
#47 = DIRECTION ( 'NONE',  ( 3.491481338843133355E-15, -1.224646799147353207E-16, 1.000000000000000000 ) ) ;
#48 = EDGE_LOOP ( 'NONE', ( #234 ) ) ;
#49 = DIRECTION ( 'NONE',  ( 3.491481338843133355E-15, -0.0000000000000000000, 1.000000000000000000 ) ) ;
#50 = AXIS2_PLACEMENT_3D ( 'NONE', #46, #32, #233 ) ;
#51 = VERTEX_POINT ( 'NONE', #237 ) ;
#52 = LOCAL_TIME ( 8, 14, 20.00000000000000000, #91 ) ;
#53 = PRODUCT_DEFINITION ( 'UNKNOWN', '', #137, #110 ) ;
#54 = DIRECTION ( 'NONE',  ( 1.000000000000000000, 0.0000000000000000000, -3.548298019043467945E-15 ) ) ;
#55 = VERTEX_POINT ( 'NONE', #14 ) ;
#56 = ADVANCED_FACE ( 'NONE', ( #139, #98 ), #128, .F. ) ;
#57 = AXIS2_PLACEMENT_3D ( 'NONE', #114, #192, #30 ) ;
#58 = FACE_OUTER_BOUND ( 'NONE', #5, .T. ) ;
#59 = PERSON_AND_ORGANIZATION_ROLE ( 'design_supplier' ) ;
#60 = APPROVAL_DATE_TIME ( #25, #143 ) ;
#61 = APPROVAL_ROLE ( '' ) ;
#62 = CC_DESIGN_DATE_AND_TIME_ASSIGNMENT ( #210, #92, ( #53 ) ) ;
#63 = DATE_TIME_ROLE ( 'classification_date' ) ;
#64 = FACE_OUTER_BOUND ( 'NONE', #172, .T. ) ;
#65 = ORIENTED_EDGE ( 'NONE', *, *, #205, .F. ) ;
#66 = CLOSED_SHELL ( 'NONE', ( #21, #188, #125 ) ) ;
#67 = APPROVAL_PERSON_ORGANIZATION ( #146, #143, #61 ) ;
#68 = DIRECTION ( 'NONE',  ( 3.491481338843133355E-15, -0.0000000000000000000, 1.000000000000000000 ) ) ;
#69 = ORIENTED_EDGE ( 'NONE', *, *, #235, .T. ) ;
#70 = EDGE_LOOP ( 'NONE', ( #175 ) ) ;
#71 = CIRCLE ( 'NONE', #141, 1.499999999999998446 ) ;
#72 = EDGE_CURVE ( 'NONE', #51, #51, #24, .T. ) ;
#73 = DIRECTION ( 'NONE',  ( 1.000000000000000000, 0.0000000000000000000, -3.491481338843133750E-15 ) ) ;
#74 =( NAMED_UNIT ( * ) SI_UNIT ( $, .STERADIAN. ) SOLID_ANGLE_UNIT ( ) );
#75 = COORDINATED_UNIVERSAL_TIME_OFFSET ( 1, 0, .AHEAD. ) ;
#76 = EDGE_CURVE ( 'NONE', #140, #140, #71, .T. ) ;
#77 = SECURITY_CLASSIFICATION_LEVEL ( 'unclassified' ) ;
#78 = AXIS2_PLACEMENT_3D ( 'NONE', #194, #118, #153 ) ;
#79 = ORIENTED_EDGE ( 'NONE', *, *, #179, .F. ) ;
#80 = PLANE ( 'NONE',  #161 ) ;
#81 = CIRCLE ( 'NONE', #177, 0.2750000000000000777 ) ;
#82 = CYLINDRICAL_SURFACE ( 'NONE', #165, 1.499999999999996225 ) ;
#83 = DIRECTION ( 'NONE',  ( -3.491481338843133355E-15, 1.224646799147353207E-16, -1.000000000000000000 ) ) ;
#84 = APPROVAL_PERSON_ORGANIZATION ( #171, #197, #187 ) ;
#85 = DIRECTION ( 'NONE',  ( 4.275831445896958607E-31, 1.000000000000000000, 1.224646799147353207E-16 ) ) ;
#86 = CARTESIAN_POINT ( 'NONE',  ( 0.2750000000000019651, 0.0000000000000000000, 0.5499999999999982681 ) ) ;
#87 = DIRECTION ( 'NONE',  ( 1.000000000000000000, 0.0000000000000000000, -3.469446951953622866E-15 ) ) ;
#88 = CC_DESIGN_APPROVAL ( #143, ( #137 ) ) ;
#89 = PRODUCT_DEFINITION_SHAPE ( 'NONE', 'NONE',  #53 ) ;
#90 = CC_DESIGN_PERSON_AND_ORGANIZATION_ASSIGNMENT ( #223, #131, ( #137 ) ) ;
#91 = COORDINATED_UNIVERSAL_TIME_OFFSET ( 1, 0, .AHEAD. ) ;
#92 = DATE_TIME_ROLE ( 'creation_date' ) ;
#93 = CC_DESIGN_PERSON_AND_ORGANIZATION_ASSIGNMENT ( #108, #1, ( #227 ) ) ;
#94 = CLOSED_SHELL ( 'NONE', ( #173, #191, #116, #56, #182, #148 ) ) ;
#95 = CC_DESIGN_SECURITY_CLASSIFICATION ( #97, ( #137 ) ) ;
#96 = EDGE_LOOP ( 'NONE', ( #196 ) ) ;
#97 = SECURITY_CLASSIFICATION ( '', '', #77 ) ;
#98 = FACE_OUTER_BOUND ( 'NONE', #96, .T. ) ;
#99 = DIRECTION ( 'NONE',  ( 1.000000000000000000, 0.0000000000000000000, -3.491481338843132961E-15 ) ) ;
#100 = EDGE_LOOP ( 'NONE', ( #138 ) ) ;
#101 =( LENGTH_UNIT ( ) NAMED_UNIT ( * ) SI_UNIT ( .MILLI., .METRE. ) );
#102 = APPLICATION_CONTEXT ( 'configuration controlled 3d designs of mechanical parts and assemblies' ) ;
#103 = DIRECTION ( 'NONE',  ( -3.491481338843133355E-15, 1.224646799147353207E-16, -1.000000000000000000 ) ) ;
#104 = FACE_OUTER_BOUND ( 'NONE', #212, .T. ) ;
#105 = CARTESIAN_POINT ( 'NONE',  ( 0.3431483474218638419, 0.0000000000000000000, 1.067638090205026646 ) ) ;
#106 = APPROVAL_DATE_TIME ( #43, #197 ) ;
#107 = AXIS2_PLACEMENT_3D ( 'NONE', #214, #49, #99 ) ;
#108 = PERSON_AND_ORGANIZATION ( #11, #42 ) ;
#109 = APPROVAL_STATUS ( 'not_yet_approved' ) ;
#110 = DESIGN_CONTEXT ( 'detailed design', #240, 'design' ) ;
#111 = CALENDAR_DATE ( 2021, 10, 11 ) ;
#112 = EDGE_LOOP ( 'NONE', ( #28 ) ) ;
#113 = EDGE_LOOP ( 'NONE', ( #170 ) ) ;
#114 = CARTESIAN_POINT ( 'NONE',  ( -6.413803915257457113E-31, 2.249659577954772199E-32, -1.836986451539393076E-16 ) ) ;
#115 = AXIS2_PLACEMENT_3D ( 'NONE', #180, #204, #36 ) ;
#116 = ADVANCED_FACE ( 'NONE', ( #64 ), #134, .F. ) ;
#117 = DIRECTION ( 'NONE',  ( -4.275831445896958607E-31, -1.000000000000000000, -1.224646799147353207E-16 ) ) ;
#118 = DIRECTION ( 'NONE',  ( 3.491481338843133355E-15, -1.224646799147353207E-16, 1.000000000000000000 ) ) ;
#119 = EDGE_LOOP ( 'NONE', ( #231 ) ) ;
#120 = CONICAL_SURFACE ( 'NONE', #144, 1.499999999999996225, 0.2617993877991428020 ) ;
#121 = DIRECTION ( 'NONE',  ( -3.491481338843133355E-15, 1.224646799147353207E-16, -1.000000000000000000 ) ) ;
#122 = CARTESIAN_POINT ( 'NONE',  ( 1.880186175748647959E-14, 0.0000000000000000000, 5.385067234446765383 ) ) ;
#123 = CARTESIAN_POINT ( 'NONE',  ( 0.0000000000000000000, 0.0000000000000000000, 0.0000000000000000000 ) ) ;
#124 = CC_DESIGN_APPROVAL ( #18, ( #97 ) ) ;
#125 = ADVANCED_FACE ( 'NONE', ( #156 ), #176, .F. ) ;
#126 = CYLINDRICAL_SURFACE ( 'NONE', #115, 0.2750000000000000777 ) ;
#127 = PERSON_AND_ORGANIZATION ( #11, #42 ) ;
#128 = TOROIDAL_SURFACE ( 'NONE', #107, 2.274999999999999911, 2.000000000000000000 ) ;
#129 = DATE_AND_TIME ( #228, #37 ) ;
#130 = ADVANCED_BREP_SHAPE_REPRESENTATION ( '64360', ( #241, #155, #221 ), #29 ) ;
#131 = PERSON_AND_ORGANIZATION_ROLE ( 'creator' ) ;
#132 = AXIS2_PLACEMENT_3D ( 'NONE', #219, #184, #166 ) ;
#133 = CC_DESIGN_PERSON_AND_ORGANIZATION_ASSIGNMENT ( #168, #207, ( #53 ) ) ;
#134 = PLANE ( 'NONE',  #50 ) ;
#135 = EDGE_LOOP ( 'NONE', ( #79 ) ) ;
#136 = AXIS2_PLACEMENT_3D ( 'NONE', #164, #103, #217 ) ;
#137 = PRODUCT_DEFINITION_FORMATION_WITH_SPECIFIED_SOURCE ( 'ANY', '', #227, .NOT_KNOWN. ) ;
#138 = ORIENTED_EDGE ( 'NONE', *, *, #229, .F. ) ;
#139 = FACE_OUTER_BOUND ( 'NONE', #33, .T. ) ;
#140 = VERTEX_POINT ( 'NONE', #142 ) ;
#141 = AXIS2_PLACEMENT_3D ( 'NONE', #178, #83, #230 ) ;
#142 = CARTESIAN_POINT ( 'NONE',  ( 1.316288464743861212E-13, 1.499999999999994005, 37.69999999999999574 ) ) ;
#143 = APPROVAL ( #26, 'UNSPECIFIED' ) ;
#144 = AXIS2_PLACEMENT_3D ( 'NONE', #122, #145, #87 ) ;
#145 = DIRECTION ( 'NONE',  ( 3.491481338843133355E-15, -0.0000000000000000000, 1.000000000000000000 ) ) ;
#146 = PERSON_AND_ORGANIZATION ( #11, #42 ) ;
#147 = COORDINATED_UNIVERSAL_TIME_OFFSET ( 1, 0, .AHEAD. ) ;
#148 = ADVANCED_FACE ( 'NONE', ( #174 ), #80, .F. ) ;
#149 = COORDINATED_UNIVERSAL_TIME_OFFSET ( 1, 0, .AHEAD. ) ;
#150 = PERSON_AND_ORGANIZATION ( #11, #42 ) ;
#151 = CONICAL_SURFACE ( 'NONE', #132, 1.199999999999998845, 0.7853981633974450594 ) ;
#152 = APPROVAL_PERSON_ORGANIZATION ( #206, #18, #40 ) ;
#153 = DIRECTION ( 'NONE',  ( -4.275831445896958607E-31, -1.000000000000000000, -1.224646799147353207E-16 ) ) ;
#154 = ORIENTED_EDGE ( 'NONE', *, *, #72, .T. ) ;
#155 = MANIFOLD_SOLID_BREP ( 'Corps-Déplacer/Copier1[2]', #66 ) ;
#156 = FACE_OUTER_BOUND ( 'NONE', #45, .T. ) ;
#157 = AXIS2_PLACEMENT_3D ( 'NONE', #7, #213, #13 ) ;
#158 = CARTESIAN_POINT ( 'NONE',  ( 0.0000000000000000000, 0.0000000000000000000, 0.0000000000000000000 ) ) ;
#159 = ORIENTED_EDGE ( 'NONE', *, *, #76, .F. ) ;
#160 = CC_DESIGN_PERSON_AND_ORGANIZATION_ASSIGNMENT ( #150, #59, ( #137 ) ) ;
#161 = AXIS2_PLACEMENT_3D ( 'NONE', #232, #47, #117 ) ;
#162 = EDGE_CURVE ( 'NONE', #35, #35, #193, .T. ) ;
#163 = FACE_OUTER_BOUND ( 'NONE', #135, .T. ) ;
#164 = CARTESIAN_POINT ( 'NONE',  ( 1.326762908760390423E-13, -4.653657836759941941E-15, 38.00000000000000000 ) ) ;
#165 = AXIS2_PLACEMENT_3D ( 'NONE', #158, #121, #85 ) ;
#166 = DIRECTION ( 'NONE',  ( 0.0000000000000000000, 1.000000000000000000, 0.0000000000000000000 ) ) ;
#167 = CC_DESIGN_PERSON_AND_ORGANIZATION_ASSIGNMENT ( #127, #3, ( #97 ) ) ;
#168 = PERSON_AND_ORGANIZATION ( #11, #42 ) ;
#169 = CALENDAR_DATE ( 2021, 10, 11 ) ;
#170 = ORIENTED_EDGE ( 'NONE', *, *, #76, .T. ) ;
#171 = PERSON_AND_ORGANIZATION ( #11, #42 ) ;
#172 = EDGE_LOOP ( 'NONE', ( #65 ) ) ;
#173 = ADVANCED_FACE ( 'NONE', ( #195, #12 ), #82, .T. ) ;
#174 = FACE_OUTER_BOUND ( 'NONE', #100, .T. ) ;
#175 = ORIENTED_EDGE ( 'NONE', *, *, #162, .T. ) ;
#176 = PLANE ( 'NONE',  #57 ) ;
#177 = AXIS2_PLACEMENT_3D ( 'NONE', #19, #39, #73 ) ;
#178 = CARTESIAN_POINT ( 'NONE',  ( 1.316288464743861212E-13, -4.616918432785521081E-15, 37.69999999999999574 ) ) ;
#179 = EDGE_CURVE ( 'NONE', #243, #243, #225, .T. ) ;
#180 = CARTESIAN_POINT ( 'NONE',  ( -1.786038389295302186E-30, 0.0000000000000000000, -5.115417256925931626E-16 ) ) ;
#181 = LOCAL_TIME ( 8, 14, 20.00000000000000000, #75 ) ;
#182 = ADVANCED_FACE ( 'NONE', ( #38, #185 ), #120, .T. ) ;
#183 = DIRECTION ( 'NONE',  ( 3.491481338843133355E-15, -0.0000000000000000000, 1.000000000000000000 ) ) ;
#184 = DIRECTION ( 'NONE',  ( -3.491481338843133355E-15, 1.224646799147353207E-16, -1.000000000000000000 ) ) ;
#185 = FACE_OUTER_BOUND ( 'NONE', #48, .T. ) ;
#186 = APPROVAL_STATUS ( 'not_yet_approved' ) ;
#187 = APPROVAL_ROLE ( '' ) ;
#188 = ADVANCED_FACE ( 'NONE', ( #58, #163 ), #126, .T. ) ;
#189 = APPLICATION_PROTOCOL_DEFINITION ( 'international standard', 'config_control_design', 1994, #240 ) ;
#190 = FACE_OUTER_BOUND ( 'NONE', #112, .T. ) ;
#191 = ADVANCED_FACE ( 'NONE', ( #104, #238 ), #151, .T. ) ;
#192 = DIRECTION ( 'NONE',  ( 3.491481338843133355E-15, -1.224646799147353207E-16, 1.000000000000000000 ) ) ;
#193 = CIRCLE ( 'NONE', #6, 0.3431483474218600671 ) ;
#194 = CARTESIAN_POINT ( 'NONE',  ( 1.920314736363722951E-15, -7.950815931560387214E-17, 0.5499999999999998224 ) ) ;
#195 = FACE_OUTER_BOUND ( 'NONE', #113, .T. ) ;
#196 = ORIENTED_EDGE ( 'NONE', *, *, #162, .F. ) ;
#197 = APPROVAL ( #186, 'UNSPECIFIED' ) ;
#198 = AXIS2_PLACEMENT_3D ( 'NONE', #16, #183, #54 ) ;
#199 = LOCAL_TIME ( 8, 14, 20.00000000000000000, #149 ) ;
#200 = VERTEX_POINT ( 'NONE', #15 ) ;
#201 = DIRECTION ( 'NONE',  ( 1.000000000000000000, 0.0000000000000000000, -3.548298019043467945E-15 ) ) ;
#202 = DIRECTION ( 'NONE',  ( 0.0000000000000000000, 0.0000000000000000000, 1.000000000000000000 ) ) ;
#203 = CC_DESIGN_APPROVAL ( #197, ( #53 ) ) ;
#204 = DIRECTION ( 'NONE',  ( 3.491481338843133355E-15, -0.0000000000000000000, 1.000000000000000000 ) ) ;
#205 = EDGE_CURVE ( 'NONE', #200, #200, #2, .T. ) ;
#206 = PERSON_AND_ORGANIZATION ( #11, #42 ) ;
#207 = PERSON_AND_ORGANIZATION_ROLE ( 'creator' ) ;
#208 = CALENDAR_DATE ( 2021, 10, 11 ) ;
#209 = UNCERTAINTY_MEASURE_WITH_UNIT (LENGTH_MEASURE( 1.000000000000000082E-05 ), #101, 'distance_accuracy_value', 'NONE');
#210 = DATE_AND_TIME ( #22, #181 ) ;
#211 = EDGE_LOOP ( 'NONE', ( #154 ) ) ;
#212 = EDGE_LOOP ( 'NONE', ( #159 ) ) ;
#213 = DIRECTION ( 'NONE',  ( 3.491481338843133355E-15, -0.0000000000000000000, 1.000000000000000000 ) ) ;
#214 = CARTESIAN_POINT ( 'NONE',  ( 1.920314736363721768E-15, 0.0000000000000000000, 0.5499999999999994893 ) ) ;
#215 = DIRECTION ( 'NONE',  ( 1.000000000000000000, 0.0000000000000000000, -3.791487316659369797E-15 ) ) ;
#216 = ORIENTED_EDGE ( 'NONE', *, *, #229, .T. ) ;
#217 = DIRECTION ( 'NONE',  ( 0.0000000000000000000, 1.000000000000000000, 0.0000000000000000000 ) ) ;
#218 = CARTESIAN_POINT ( 'NONE',  ( 1.920314736363720979E-15, 0.0000000000000000000, 0.5499999999999992673 ) ) ;
#219 = CARTESIAN_POINT ( 'NONE',  ( 1.326762908760390423E-13, -4.653657836759941941E-15, 38.00000000000000000 ) ) ;
#220 = CARTESIAN_POINT ( 'NONE',  ( 0.2750000000000019651, 0.0000000000000000000, 0.5499999999999982681 ) ) ;
#221 = AXIS2_PLACEMENT_3D ( 'NONE', #123, #202, #226 ) ;
#222 = APPLICATION_PROTOCOL_DEFINITION ( 'international standard', 'config_control_design', 1994, #102 ) ;
#223 = PERSON_AND_ORGANIZATION ( #11, #42 ) ;
#224 = APPROVAL_DATE_TIME ( #20, #18 ) ;
#225 = CIRCLE ( 'NONE', #198, 0.2750000000000000777 ) ;
#226 = DIRECTION ( 'NONE',  ( 1.000000000000000000, 0.0000000000000000000, 0.0000000000000000000 ) ) ;
#227 = PRODUCT ( '64360', '64360', '', ( #23 ) ) ;
#228 = CALENDAR_DATE ( 2021, 10, 11 ) ;
#229 = EDGE_CURVE ( 'NONE', #34, #34, #242, .T. ) ;
#230 = DIRECTION ( 'NONE',  ( 0.0000000000000000000, 1.000000000000000000, 0.0000000000000000000 ) ) ;
#231 = ORIENTED_EDGE ( 'NONE', *, *, #205, .T. ) ;
#232 = CARTESIAN_POINT ( 'NONE',  ( 1.920314736363722951E-15, -7.950815931560387214E-17, 0.5499999999999998224 ) ) ;
#233 = DIRECTION ( 'NONE',  ( 4.275831445896958607E-31, 1.000000000000000000, 1.224646799147353207E-16 ) ) ;
#234 = ORIENTED_EDGE ( 'NONE', *, *, #72, .F. ) ;
#235 = EDGE_CURVE ( 'NONE', #55, #55, #81, .T. ) ;
#236 = LOCAL_TIME ( 8, 14, 20.00000000000000000, #147 ) ;
#237 = CARTESIAN_POINT ( 'NONE',  ( 1.500000000000015099, 0.0000000000000000000, 5.385067234446760054 ) ) ;
#238 = FACE_BOUND ( 'NONE', #119, .T. ) ;
#239 =( NAMED_UNIT ( * ) PLANE_ANGLE_UNIT ( ) SI_UNIT ( $, .RADIAN. ) );
#240 = APPLICATION_CONTEXT ( 'configuration controlled 3d designs of mechanical parts and assemblies' ) ;
#241 = MANIFOLD_SOLID_BREP ( 'Corps-Déplacer/Copier1[1]', #94 ) ;
#242 = CIRCLE ( 'NONE', #41, 0.2750000000000000777 ) ;
#243 = VERTEX_POINT ( 'NONE', #86 ) ;
ENDSEC;
END-ISO-10303-21;
