ISO-10303-21;
HEADER;
FILE_DESCRIPTION (( 'STEP AP203' ),
    '1' );
FILE_NAME ('64359.step',
    '2021-11-10T07:14:19',
    ( '' ),
    ( '' ),
    'SwSTEP 2.0',
    'SolidWorks 2019',
    '' );
FILE_SCHEMA (( 'CONFIG_CONTROL_DESIGN' ));
ENDSEC;

DATA;
#1 = PERSON_AND_ORGANIZATION ( #125, #54 ) ;
#2 = ADVANCED_BREP_SHAPE_REPRESENTATION ( '64359', ( #170, #7, #38 ), #159 ) ;
#3 = PERSON_AND_ORGANIZATION ( #125, #54 ) ;
#4 = FACE_OUTER_BOUND ( 'NONE', #124, .T. ) ;
#5 = EDGE_CURVE ( 'NONE', #177, #177, #52, .T. ) ;
#6 = VERTEX_POINT ( 'NONE', #218 ) ;
#7 = MANIFOLD_SOLID_BREP ( 'Corps-Déplacer/Copier1[2]', #207 ) ;
#8 = DIRECTION ( 'NONE',  ( -4.275831445896958607E-31, -1.000000000000000000, -1.224646799147353207E-16 ) ) ;
#9 = DIRECTION ( 'NONE',  ( 4.275831445896958607E-31, 1.000000000000000000, 1.224646799147353207E-16 ) ) ;
#10 = CARTESIAN_POINT ( 'NONE',  ( 1.571166602479407643E-15, 0.0000000000000000000, 0.4499999999999993450 ) ) ;
#11 = ORIENTED_EDGE ( 'NONE', *, *, #171, .T. ) ;
#12 = PERSON_AND_ORGANIZATION ( #125, #54 ) ;
#13 = DIRECTION ( 'NONE',  ( 3.491481338843133355E-15, -0.0000000000000000000, 1.000000000000000000 ) ) ;
#14 = CC_DESIGN_PERSON_AND_ORGANIZATION_ASSIGNMENT ( #67, #212, ( #74 ) ) ;
#15 = ORIENTED_EDGE ( 'NONE', *, *, #197, .T. ) ;
#16 = APPROVAL_DATE_TIME ( #138, #201 ) ;
#17 = EDGE_LOOP ( 'NONE', ( #200 ) ) ;
#18 = AXIS2_PLACEMENT_3D ( 'NONE', #233, #44, #119 ) ;
#19 = APPLICATION_CONTEXT ( 'configuration controlled 3d designs of mechanical parts and assemblies' ) ;
#20 = LOCAL_TIME ( 8, 14, 19.00000000000000000, #239 ) ;
#21 = VERTEX_POINT ( 'NONE', #58 ) ;
#22 = DIRECTION ( 'NONE',  ( 1.000000000000000000, 0.0000000000000000000, -3.491481338843133750E-15 ) ) ;
#23 = VERTEX_POINT ( 'NONE', #94 ) ;
#24 = AXIS2_PLACEMENT_3D ( 'NONE', #215, #161, #82 ) ;
#25 = CYLINDRICAL_SURFACE ( 'NONE', #108, 1.499999999999996225 ) ;
#26 = FACE_OUTER_BOUND ( 'NONE', #50, .T. ) ;
#27 = FACE_OUTER_BOUND ( 'NONE', #53, .T. ) ;
#28 = EDGE_LOOP ( 'NONE', ( #15 ) ) ;
#29 = DATE_AND_TIME ( #114, #226 ) ;
#30 = CC_DESIGN_PERSON_AND_ORGANIZATION_ASSIGNMENT ( #101, #184, ( #113 ) ) ;
#31 = FACE_OUTER_BOUND ( 'NONE', #36, .T. ) ;
#32 = CONICAL_SURFACE ( 'NONE', #225, 1.199999999999998845, 0.7853981633974450594 ) ;
#33 = DIRECTION ( 'NONE',  ( 1.000000000000000000, 0.0000000000000000000, 0.0000000000000000000 ) ) ;
#34 = FACE_OUTER_BOUND ( 'NONE', #241, .T. ) ;
#35 = PERSON_AND_ORGANIZATION ( #125, #54 ) ;
#36 = EDGE_LOOP ( 'NONE', ( #90 ) ) ;
#37 = AXIS2_PLACEMENT_3D ( 'NONE', #140, #123, #8 ) ;
#38 = AXIS2_PLACEMENT_3D ( 'NONE', #104, #41, #33 ) ;
#39 = CIRCLE ( 'NONE', #117, 1.499999999999996225 ) ;
#40 = CC_DESIGN_SECURITY_CLASSIFICATION ( #139, ( #118 ) ) ;
#41 = DIRECTION ( 'NONE',  ( 0.0000000000000000000, 0.0000000000000000000, 1.000000000000000000 ) ) ;
#42 = DIRECTION ( 'NONE',  ( 3.491481338843133355E-15, -1.224646799147353207E-16, 1.000000000000000000 ) ) ;
#43 = CIRCLE ( 'NONE', #189, 0.2249999999999999500 ) ;
#44 = DIRECTION ( 'NONE',  ( -3.491481338843133355E-15, 1.224646799147353207E-16, -1.000000000000000000 ) ) ;
#45 = PERSON_AND_ORGANIZATION_ROLE ( 'design_supplier' ) ;
#46 = DIRECTION ( 'NONE',  ( 3.491481338843133355E-15, -0.0000000000000000000, 1.000000000000000000 ) ) ;
#47 = SECURITY_CLASSIFICATION_LEVEL ( 'unclassified' ) ;
#48 = CC_DESIGN_PERSON_AND_ORGANIZATION_ASSIGNMENT ( #1, #45, ( #118 ) ) ;
#49 = CARTESIAN_POINT ( 'NONE',  ( 1.326762908760390423E-13, -4.653657836759941941E-15, 38.00000000000000000 ) ) ;
#50 = EDGE_LOOP ( 'NONE', ( #157 ) ) ;
#51 = CARTESIAN_POINT ( 'NONE',  ( 1.316288464743861212E-13, 1.499999999999994005, 37.69999999999999574 ) ) ;
#52 = CIRCLE ( 'NONE', #169, 0.2249999999999999500 ) ;
#53 = EDGE_LOOP ( 'NONE', ( #202 ) ) ;
#54 = ORGANIZATION ( 'UNSPECIFIED', 'UNSPECIFIED', '' ) ;
#55 = APPROVAL_DATE_TIME ( #187, #56 ) ;
#56 = APPROVAL ( #164, 'UNSPECIFIED' ) ;
#57 = UNCERTAINTY_MEASURE_WITH_UNIT (LENGTH_MEASURE( 1.000000000000000082E-05 ), #180, 'distance_accuracy_value', 'NONE');
#58 = CARTESIAN_POINT ( 'NONE',  ( 0.2250000000000015044, 0.0000000000000000000, 0.4499999999999985678 ) ) ;
#59 = CIRCLE ( 'NONE', #78, 1.199999999999998845 ) ;
#60 = CARTESIAN_POINT ( 'NONE',  ( 1.910423291111424580E-14, 0.0000000000000000000, 5.471669774825214994 ) ) ;
#61 = DIRECTION ( 'NONE',  ( 0.0000000000000000000, 1.000000000000000000, 0.0000000000000000000 ) ) ;
#62 = DATE_TIME_ROLE ( 'creation_date' ) ;
#63 = CARTESIAN_POINT ( 'NONE',  ( 0.2250000000000015044, 0.0000000000000000000, 0.4499999999999985678 ) ) ;
#64 = CC_DESIGN_APPROVAL ( #75, ( #113 ) ) ;
#65 = PLANE ( 'NONE',  #150 ) ;
#66 = ADVANCED_FACE ( 'NONE', ( #31 ), #137, .F. ) ;
#67 = PERSON_AND_ORGANIZATION ( #125, #54 ) ;
#68 = DIRECTION ( 'NONE',  ( 3.491481338843133355E-15, -0.0000000000000000000, 1.000000000000000000 ) ) ;
#69 = ORIENTED_EDGE ( 'NONE', *, *, #106, .T. ) ;
#70 = DATE_AND_TIME ( #79, #20 ) ;
#71 =( NAMED_UNIT ( * ) PLANE_ANGLE_UNIT ( ) SI_UNIT ( $, .RADIAN. ) );
#72 = AXIS2_PLACEMENT_3D ( 'NONE', #234, #175, #98 ) ;
#73 = ORIENTED_EDGE ( 'NONE', *, *, #135, .F. ) ;
#74 = PRODUCT ( '64359', '64359', '', ( #146 ) ) ;
#75 = APPROVAL ( #144, 'UNSPECIFIED' ) ;
#76 = APPROVAL_ROLE ( '' ) ;
#77 = ADVANCED_FACE ( 'NONE', ( #223, #102 ), #32, .T. ) ;
#78 = AXIS2_PLACEMENT_3D ( 'NONE', #122, #95, #61 ) ;
#79 = CALENDAR_DATE ( 2021, 10, 11 ) ;
#80 = APPROVAL_STATUS ( 'not_yet_approved' ) ;
#81 = LOCAL_TIME ( 8, 14, 19.00000000000000000, #220 ) ;
#82 = DIRECTION ( 'NONE',  ( 1.000000000000000000, 0.0000000000000000000, -3.328628538481026713E-15 ) ) ;
#83 = FACE_OUTER_BOUND ( 'NONE', #188, .T. ) ;
#84 = ORIENTED_EDGE ( 'NONE', *, *, #181, .F. ) ;
#85 = DIRECTION ( 'NONE',  ( 1.000000000000000000, 0.0000000000000000000, -3.491481338843132961E-15 ) ) ;
#86 = DIRECTION ( 'NONE',  ( 3.491481338843133355E-15, -0.0000000000000000000, 1.000000000000000000 ) ) ;
#87 = DIRECTION ( 'NONE',  ( -4.275831445896958607E-31, -1.000000000000000000, -1.224646799147353207E-16 ) ) ;
#88 = DATE_AND_TIME ( #192, #167 ) ;
#89 = PLANE ( 'NONE',  #232 ) ;
#90 = ORIENTED_EDGE ( 'NONE', *, *, #5, .F. ) ;
#91 = PERSON_AND_ORGANIZATION ( #125, #54 ) ;
#92 = CARTESIAN_POINT ( 'NONE',  ( 0.2249999999999999500, 0.0000000000000000000, -7.855833012397048077E-16 ) ) ;
#93 = CC_DESIGN_PERSON_AND_ORGANIZATION_ASSIGNMENT ( #35, #217, ( #118 ) ) ;
#94 = CARTESIAN_POINT ( 'NONE',  ( 1.326762908760390423E-13, 1.199999999999994182, 38.00000000000000000 ) ) ;
#95 = DIRECTION ( 'NONE',  ( -3.491481338843133355E-15, 1.224646799147353207E-16, -1.000000000000000000 ) ) ;
#96 = CIRCLE ( 'NONE', #72, 0.2249999999999999500 ) ;
#97 = DIRECTION ( 'NONE',  ( 3.491481338843133355E-15, -0.0000000000000000000, 1.000000000000000000 ) ) ;
#98 = DIRECTION ( 'NONE',  ( 1.000000000000000000, 0.0000000000000000000, -3.491481338843133355E-15 ) ) ;
#99 = DIRECTION ( 'NONE',  ( 1.000000000000000000, 0.0000000000000000000, -3.469446951953622866E-15 ) ) ;
#100 = CARTESIAN_POINT ( 'NONE',  ( -6.413803915257457113E-31, 2.249659577954772199E-32, -1.836986451539393076E-16 ) ) ;
#101 = PERSON_AND_ORGANIZATION ( #125, #54 ) ;
#102 = FACE_BOUND ( 'NONE', #238, .T. ) ;
#103 = ORIENTED_EDGE ( 'NONE', *, *, #135, .T. ) ;
#104 = CARTESIAN_POINT ( 'NONE',  ( 0.0000000000000000000, 0.0000000000000000000, 0.0000000000000000000 ) ) ;
#105 = FACE_OUTER_BOUND ( 'NONE', #143, .T. ) ;
#106 = EDGE_CURVE ( 'NONE', #6, #6, #39, .T. ) ;
#107 = EDGE_LOOP ( 'NONE', ( #224 ) ) ;
#108 = AXIS2_PLACEMENT_3D ( 'NONE', #179, #199, #9 ) ;
#109 = ADVANCED_FACE ( 'NONE', ( #115, #26 ), #132, .T. ) ;
#110 = DIRECTION ( 'NONE',  ( 1.000000000000000000, 0.0000000000000000000, -3.373073425510458853E-15 ) ) ;
#111 = AXIS2_PLACEMENT_3D ( 'NONE', #156, #42, #87 ) ;
#112 = LOCAL_TIME ( 8, 14, 19.00000000000000000, #148 ) ;
#113 = PRODUCT_DEFINITION ( 'UNKNOWN', '', #118, #211 ) ;
#114 = CALENDAR_DATE ( 2021, 10, 11 ) ;
#115 = FACE_BOUND ( 'NONE', #107, .T. ) ;
#116 = DIRECTION ( 'NONE',  ( -3.491481338843133355E-15, 1.224646799147353207E-16, -1.000000000000000000 ) ) ;
#117 = AXIS2_PLACEMENT_3D ( 'NONE', #219, #13, #142 ) ;
#118 = PRODUCT_DEFINITION_FORMATION_WITH_SPECIFIED_SOURCE ( 'ANY', '', #74, .NOT_KNOWN. ) ;
#119 = DIRECTION ( 'NONE',  ( 0.0000000000000000000, 1.000000000000000000, 0.0000000000000000000 ) ) ;
#120 = EDGE_LOOP ( 'NONE', ( #84 ) ) ;
#121 = PERSON_AND_ORGANIZATION ( #125, #54 ) ;
#122 = CARTESIAN_POINT ( 'NONE',  ( 1.326762908760390423E-13, -4.653657836759941941E-15, 38.00000000000000000 ) ) ;
#123 = DIRECTION ( 'NONE',  ( 3.491481338843133355E-15, -1.224646799147353207E-16, 1.000000000000000000 ) ) ;
#124 = EDGE_LOOP ( 'NONE', ( #227 ) ) ;
#125 = PERSON ( 'UNSPECIFIED', 'UNSPECIFIED', 'UNSPECIFIED', ('UNSPECIFIED'), ('UNSPECIFIED'), ('UNSPECIFIED') ) ;
#126 = APPROVAL_PERSON_ORGANIZATION ( #3, #201, #235 ) ;
#127 = APPLICATION_PROTOCOL_DEFINITION ( 'international standard', 'config_control_design', 1994, #160 ) ;
#128 = ORIENTED_EDGE ( 'NONE', *, *, #210, .F. ) ;
#129 = SHAPE_DEFINITION_REPRESENTATION ( #193, #2 ) ;
#130 = CALENDAR_DATE ( 2021, 10, 11 ) ;
#131 = CIRCLE ( 'NONE', #24, 0.2931483474218599672 ) ;
#132 = CONICAL_SURFACE ( 'NONE', #172, 1.499999999999996225, 0.2617993877991428020 ) ;
#133 = CC_DESIGN_APPROVAL ( #56, ( #139 ) ) ;
#134 = CARTESIAN_POINT ( 'NONE',  ( -1.786038389295302186E-30, 0.0000000000000000000, -5.115417256925931626E-16 ) ) ;
#135 = EDGE_CURVE ( 'NONE', #23, #23, #59, .T. ) ;
#136 = FACE_OUTER_BOUND ( 'NONE', #206, .T. ) ;
#137 = PLANE ( 'NONE',  #37 ) ;
#138 = DATE_AND_TIME ( #186, #81 ) ;
#139 = SECURITY_CLASSIFICATION ( '', '', #47 ) ;
#140 = CARTESIAN_POINT ( 'NONE',  ( 1.571166602479409221E-15, -3.252606517456520698E-17, 0.4499999999999997891 ) ) ;
#141 = APPLICATION_PROTOCOL_DEFINITION ( 'international standard', 'config_control_design', 1994, #19 ) ;
#142 = DIRECTION ( 'NONE',  ( 1.000000000000000000, 0.0000000000000000000, -3.469446951953622866E-15 ) ) ;
#143 = EDGE_LOOP ( 'NONE', ( #128 ) ) ;
#144 = APPROVAL_STATUS ( 'not_yet_approved' ) ;
#145 = CC_DESIGN_DATE_AND_TIME_ASSIGNMENT ( #70, #222, ( #139 ) ) ;
#146 = MECHANICAL_CONTEXT ( 'NONE', #160, 'mechanical' ) ;
#147 = VERTEX_POINT ( 'NONE', #92 ) ;
#148 = COORDINATED_UNIVERSAL_TIME_OFFSET ( 1, 0, .AHEAD. ) ;
#149 = ADVANCED_FACE ( 'NONE', ( #136 ), #89, .F. ) ;
#150 = AXIS2_PLACEMENT_3D ( 'NONE', #100, #237, #182 ) ;
#151 = ADVANCED_FACE ( 'NONE', ( #178, #83 ), #25, .T. ) ;
#152 = VERTEX_POINT ( 'NONE', #51 ) ;
#153 = COORDINATED_UNIVERSAL_TIME_OFFSET ( 1, 0, .AHEAD. ) ;
#154 = TOROIDAL_SURFACE ( 'NONE', #191, 2.225000000000000089, 2.000000000000000000 ) ;
#155 = CARTESIAN_POINT ( 'NONE',  ( 1.571166602479407643E-15, 0.0000000000000000000, 0.4499999999999993450 ) ) ;
#156 = CARTESIAN_POINT ( 'NONE',  ( 1.571166602479409221E-15, -3.252606517456520698E-17, 0.4499999999999997891 ) ) ;
#157 = ORIENTED_EDGE ( 'NONE', *, *, #106, .F. ) ;
#158 = FACE_OUTER_BOUND ( 'NONE', #183, .T. ) ;
#159 =( GEOMETRIC_REPRESENTATION_CONTEXT ( 3 ) GLOBAL_UNCERTAINTY_ASSIGNED_CONTEXT ( ( #57 ) ) GLOBAL_UNIT_ASSIGNED_CONTEXT ( ( #180, #71, #242 ) ) REPRESENTATION_CONTEXT ( 'NONE', 'WORKASPACE' ) );
#160 = APPLICATION_CONTEXT ( 'configuration controlled 3d designs of mechanical parts and assemblies' ) ;
#161 = DIRECTION ( 'NONE',  ( 3.491481338843133355E-15, -0.0000000000000000000, 1.000000000000000000 ) ) ;
#162 = ADVANCED_FACE ( 'NONE', ( #4, #240 ), #154, .F. ) ;
#163 = CARTESIAN_POINT ( 'NONE',  ( 1.326762908760390423E-13, 8.998558695971069014E-33, 38.00000000000000000 ) ) ;
#164 = APPROVAL_STATUS ( 'not_yet_approved' ) ;
#165 = ADVANCED_FACE ( 'NONE', ( #27 ), #194, .T. ) ;
#166 = CIRCLE ( 'NONE', #18, 1.499999999999998446 ) ;
#167 = LOCAL_TIME ( 8, 14, 19.00000000000000000, #230 ) ;
#168 = PRODUCT_RELATED_PRODUCT_CATEGORY ( 'detail', '', ( #74 ) ) ;
#169 = AXIS2_PLACEMENT_3D ( 'NONE', #155, #68, #196 ) ;
#170 = MANIFOLD_SOLID_BREP ( 'Corps-Déplacer/Copier1[1]', #204 ) ;
#171 = EDGE_CURVE ( 'NONE', #147, #147, #96, .T. ) ;
#172 = AXIS2_PLACEMENT_3D ( 'NONE', #60, #46, #99 ) ;
#173 = APPROVAL_PERSON_ORGANIZATION ( #12, #75, #205 ) ;
#174 = APPROVAL_DATE_TIME ( #29, #75 ) ;
#175 = DIRECTION ( 'NONE',  ( 3.491481338843133355E-15, -0.0000000000000000000, 1.000000000000000000 ) ) ;
#176 = CC_DESIGN_APPROVAL ( #201, ( #118 ) ) ;
#177 = VERTEX_POINT ( 'NONE', #63 ) ;
#178 = FACE_OUTER_BOUND ( 'NONE', #28, .T. ) ;
#179 = CARTESIAN_POINT ( 'NONE',  ( 0.0000000000000000000, 0.0000000000000000000, 0.0000000000000000000 ) ) ;
#180 =( LENGTH_UNIT ( ) NAMED_UNIT ( * ) SI_UNIT ( .MILLI., .METRE. ) );
#181 = EDGE_CURVE ( 'NONE', #243, #243, #131, .T. ) ;
#182 = DIRECTION ( 'NONE',  ( -4.275831445896958607E-31, -1.000000000000000000, -1.224646799147353207E-16 ) ) ;
#183 = EDGE_LOOP ( 'NONE', ( #203 ) ) ;
#184 = PERSON_AND_ORGANIZATION_ROLE ( 'creator' ) ;
#185 = DIRECTION ( 'NONE',  ( 0.0000000000000000000, 1.000000000000000000, 0.0000000000000000000 ) ) ;
#186 = CALENDAR_DATE ( 2021, 10, 11 ) ;
#187 = DATE_AND_TIME ( #130, #112 ) ;
#188 = EDGE_LOOP ( 'NONE', ( #69 ) ) ;
#189 = AXIS2_PLACEMENT_3D ( 'NONE', #10, #221, #110 ) ;
#190 = APPROVAL_PERSON_ORGANIZATION ( #91, #56, #76 ) ;
#191 = AXIS2_PLACEMENT_3D ( 'NONE', #214, #86, #22 ) ;
#192 = CALENDAR_DATE ( 2021, 10, 11 ) ;
#193 = PRODUCT_DEFINITION_SHAPE ( 'NONE', 'NONE',  #113 ) ;
#194 = PLANE ( 'NONE',  #111 ) ;
#195 = DIRECTION ( 'NONE',  ( -3.491481338843133355E-15, 1.224646799147353207E-16, -1.000000000000000000 ) ) ;
#196 = DIRECTION ( 'NONE',  ( 1.000000000000000000, 0.0000000000000000000, -3.373073425510458853E-15 ) ) ;
#197 = EDGE_CURVE ( 'NONE', #152, #152, #166, .T. ) ;
#198 = PERSON_AND_ORGANIZATION_ROLE ( 'classification_officer' ) ;
#199 = DIRECTION ( 'NONE',  ( -3.491481338843133355E-15, 1.224646799147353207E-16, -1.000000000000000000 ) ) ;
#200 = ORIENTED_EDGE ( 'NONE', *, *, #197, .F. ) ;
#201 = APPROVAL ( #80, 'UNSPECIFIED' ) ;
#202 = ORIENTED_EDGE ( 'NONE', *, *, #210, .T. ) ;
#203 = ORIENTED_EDGE ( 'NONE', *, *, #171, .F. ) ;
#204 = CLOSED_SHELL ( 'NONE', ( #151, #77, #149, #162, #109, #66 ) ) ;
#205 = APPROVAL_ROLE ( '' ) ;
#206 = EDGE_LOOP ( 'NONE', ( #73 ) ) ;
#207 = CLOSED_SHELL ( 'NONE', ( #165, #216, #209 ) ) ;
#208 = CARTESIAN_POINT ( 'NONE',  ( 0.2931483474218632979, 0.0000000000000000000, 0.9676380902050272237 ) ) ;
#209 = ADVANCED_FACE ( 'NONE', ( #158 ), #65, .F. ) ;
#210 = EDGE_CURVE ( 'NONE', #21, #21, #43, .T. ) ;
#211 = DESIGN_CONTEXT ( 'detailed design', #19, 'design' ) ;
#212 = PERSON_AND_ORGANIZATION_ROLE ( 'design_owner' ) ;
#213 = CC_DESIGN_DATE_AND_TIME_ASSIGNMENT ( #88, #62, ( #113 ) ) ;
#214 = CARTESIAN_POINT ( 'NONE',  ( 1.571166602479408629E-15, 0.0000000000000000000, 0.4499999999999996225 ) ) ;
#215 = CARTESIAN_POINT ( 'NONE',  ( 3.378490334704664419E-15, 0.0000000000000000000, 0.9676380902050282229 ) ) ;
#216 = ADVANCED_FACE ( 'NONE', ( #34, #105 ), #229, .T. ) ;
#217 = PERSON_AND_ORGANIZATION_ROLE ( 'creator' ) ;
#218 = CARTESIAN_POINT ( 'NONE',  ( 1.500000000000015099, 0.0000000000000000000, 5.471669774825209664 ) ) ;
#219 = CARTESIAN_POINT ( 'NONE',  ( 1.910423291111424580E-14, 0.0000000000000000000, 5.471669774825214994 ) ) ;
#220 = COORDINATED_UNIVERSAL_TIME_OFFSET ( 1, 0, .AHEAD. ) ;
#221 = DIRECTION ( 'NONE',  ( 3.491481338843133355E-15, -0.0000000000000000000, 1.000000000000000000 ) ) ;
#222 = DATE_TIME_ROLE ( 'classification_date' ) ;
#223 = FACE_OUTER_BOUND ( 'NONE', #17, .T. ) ;
#224 = ORIENTED_EDGE ( 'NONE', *, *, #181, .T. ) ;
#225 = AXIS2_PLACEMENT_3D ( 'NONE', #49, #116, #185 ) ;
#226 = LOCAL_TIME ( 8, 14, 19.00000000000000000, #153 ) ;
#227 = ORIENTED_EDGE ( 'NONE', *, *, #5, .T. ) ;
#228 = AXIS2_PLACEMENT_3D ( 'NONE', #134, #97, #85 ) ;
#229 = CYLINDRICAL_SURFACE ( 'NONE', #228, 0.2249999999999999500 ) ;
#230 = COORDINATED_UNIVERSAL_TIME_OFFSET ( 1, 0, .AHEAD. ) ;
#231 = CC_DESIGN_PERSON_AND_ORGANIZATION_ASSIGNMENT ( #121, #198, ( #139 ) ) ;
#232 = AXIS2_PLACEMENT_3D ( 'NONE', #163, #195, #236 ) ;
#233 = CARTESIAN_POINT ( 'NONE',  ( 1.316288464743861212E-13, -4.616918432785521081E-15, 37.69999999999999574 ) ) ;
#234 = CARTESIAN_POINT ( 'NONE',  ( 0.0000000000000000000, 0.0000000000000000000, 0.0000000000000000000 ) ) ;
#235 = APPROVAL_ROLE ( '' ) ;
#236 = DIRECTION ( 'NONE',  ( 4.275831445896958607E-31, 1.000000000000000000, 1.224646799147353207E-16 ) ) ;
#237 = DIRECTION ( 'NONE',  ( 3.491481338843133355E-15, -1.224646799147353207E-16, 1.000000000000000000 ) ) ;
#238 = EDGE_LOOP ( 'NONE', ( #103 ) ) ;
#239 = COORDINATED_UNIVERSAL_TIME_OFFSET ( 1, 0, .AHEAD. ) ;
#240 = FACE_OUTER_BOUND ( 'NONE', #120, .T. ) ;
#241 = EDGE_LOOP ( 'NONE', ( #11 ) ) ;
#242 =( NAMED_UNIT ( * ) SI_UNIT ( $, .STERADIAN. ) SOLID_ANGLE_UNIT ( ) );
#243 = VERTEX_POINT ( 'NONE', #208 ) ;
ENDSEC;
END-ISO-10303-21;
