ISO-10303-21;
HEADER;
FILE_DESCRIPTION (( 'STEP AP203' ),
    '1' );
FILE_NAME ('64357.step',
    '2021-11-10T07:14:18',
    ( '' ),
    ( '' ),
    'SwSTEP 2.0',
    'SolidWorks 2019',
    '' );
FILE_SCHEMA (( 'CONFIG_CONTROL_DESIGN' ));
ENDSEC;

DATA;
#1 = MECHANICAL_CONTEXT ( 'NONE', #149, 'mechanical' ) ;
#2 = DIRECTION ( 'NONE',  ( 0.0000000000000000000, 1.000000000000000000, 0.0000000000000000000 ) ) ;
#3 = DATE_TIME_ROLE ( 'classification_date' ) ;
#4 = AXIS2_PLACEMENT_3D ( 'NONE', #212, #75, #111 ) ;
#5 = ORGANIZATION ( 'UNSPECIFIED', 'UNSPECIFIED', '' ) ;
#6 = DIRECTION ( 'NONE',  ( 3.491481338843133355E-15, -0.0000000000000000000, 1.000000000000000000 ) ) ;
#7 = UNCERTAINTY_MEASURE_WITH_UNIT (LENGTH_MEASURE( 1.000000000000000082E-05 ), #37, 'distance_accuracy_value', 'NONE');
#8 = FACE_OUTER_BOUND ( 'NONE', #103, .T. ) ;
#9 = FACE_BOUND ( 'NONE', #153, .T. ) ;
#10 = AXIS2_PLACEMENT_3D ( 'NONE', #164, #125, #32 ) ;
#11 = FACE_OUTER_BOUND ( 'NONE', #65, .T. ) ;
#12 = DIRECTION ( 'NONE',  ( -3.491481338843133355E-15, 1.224646799147353207E-16, -1.000000000000000000 ) ) ;
#13 = EDGE_CURVE ( 'NONE', #200, #200, #177, .T. ) ;
#14 = PERSON_AND_ORGANIZATION ( #218, #5 ) ;
#15 = CC_DESIGN_APPROVAL ( #231, ( #113 ) ) ;
#16 = CC_DESIGN_DATE_AND_TIME_ASSIGNMENT ( #138, #3, ( #113 ) ) ;
#17 = CARTESIAN_POINT ( 'NONE',  ( 1.326762908760390423E-13, 1.199999999999994182, 38.00000000000000000 ) ) ;
#18 = PERSON_AND_ORGANIZATION_ROLE ( 'creator' ) ;
#19 = ORIENTED_EDGE ( 'NONE', *, *, #36, .T. ) ;
#20 = DATE_AND_TIME ( #150, #199 ) ;
#21 = ORIENTED_EDGE ( 'NONE', *, *, #165, .F. ) ;
#22 = PERSON_AND_ORGANIZATION ( #218, #5 ) ;
#23 = ORIENTED_EDGE ( 'NONE', *, *, #234, .F. ) ;
#24 = AXIS2_PLACEMENT_3D ( 'NONE', #198, #52, #159 ) ;
#25 = ORIENTED_EDGE ( 'NONE', *, *, #161, .T. ) ;
#26 = FACE_OUTER_BOUND ( 'NONE', #137, .T. ) ;
#27 = TOROIDAL_SURFACE ( 'NONE', #148, 2.125000000000000000, 2.000000000000000000 ) ;
#28 = APPROVAL_STATUS ( 'not_yet_approved' ) ;
#29 = APPROVAL_PERSON_ORGANIZATION ( #22, #231, #230 ) ;
#30 = CARTESIAN_POINT ( 'NONE',  ( 1.316288464743861212E-13, -4.616918432785521081E-15, 37.69999999999999574 ) ) ;
#31 = ADVANCED_FACE ( 'NONE', ( #135 ), #207, .F. ) ;
#32 = DIRECTION ( 'NONE',  ( 1.000000000000000000, 0.0000000000000000000, -3.469446951953622866E-15 ) ) ;
#33 = DIRECTION ( 'NONE',  ( 1.000000000000000000, 0.0000000000000000000, -3.491481338843133355E-15 ) ) ;
#34 = AXIS2_PLACEMENT_3D ( 'NONE', #163, #71, #140 ) ;
#35 = FACE_OUTER_BOUND ( 'NONE', #232, .T. ) ;
#36 = EDGE_CURVE ( 'NONE', #104, #104, #187, .T. ) ;
#37 =( LENGTH_UNIT ( ) NAMED_UNIT ( * ) SI_UNIT ( .MILLI., .METRE. ) );
#38 = CC_DESIGN_PERSON_AND_ORGANIZATION_ASSIGNMENT ( #70, #106, ( #113 ) ) ;
#39 = AXIS2_PLACEMENT_3D ( 'NONE', #196, #182, #33 ) ;
#40 = CALENDAR_DATE ( 2021, 10, 11 ) ;
#41 = CONICAL_SURFACE ( 'NONE', #134, 1.499999999999996225, 0.2617993877991428575 ) ;
#42 = CC_DESIGN_PERSON_AND_ORGANIZATION_ASSIGNMENT ( #167, #118, ( #96 ) ) ;
#43 = CARTESIAN_POINT ( 'NONE',  ( 1.500000000000015765, 0.0000000000000000000, 5.644874855582106221 ) ) ;
#44 = PRODUCT ( '64357', '64357', '', ( #1 ) ) ;
#45 = EDGE_CURVE ( 'NONE', #206, #206, #68, .T. ) ;
#46 = ORIENTED_EDGE ( 'NONE', *, *, #234, .T. ) ;
#47 = CIRCLE ( 'NONE', #229, 1.499999999999998446 ) ;
#48 = LOCAL_TIME ( 8, 14, 18.00000000000000000, #58 ) ;
#49 = EDGE_LOOP ( 'NONE', ( #25 ) ) ;
#50 = CARTESIAN_POINT ( 'NONE',  ( 1.970897521836977191E-14, 0.0000000000000000000, 5.644874855582111550 ) ) ;
#51 = CALENDAR_DATE ( 2021, 10, 11 ) ;
#52 = DIRECTION ( 'NONE',  ( 3.491481338843133355E-15, -0.0000000000000000000, 1.000000000000000000 ) ) ;
#53 = MANIFOLD_SOLID_BREP ( 'Corps-Déplacer/Copier1[2]', #120 ) ;
#54 = CYLINDRICAL_SURFACE ( 'NONE', #204, 0.1250000000000000000 ) ;
#55 = MANIFOLD_SOLID_BREP ( 'Corps-Déplacer/Copier1[1]', #221 ) ;
#56 = DIRECTION ( 'NONE',  ( 3.491481338843133355E-15, -1.224646799147353207E-16, 1.000000000000000000 ) ) ;
#57 = FACE_OUTER_BOUND ( 'NONE', #49, .T. ) ;
#58 = COORDINATED_UNIVERSAL_TIME_OFFSET ( 1, 0, .AHEAD. ) ;
#59 = CC_DESIGN_PERSON_AND_ORGANIZATION_ASSIGNMENT ( #14, #18, ( #188 ) ) ;
#60 = LOCAL_TIME ( 8, 14, 18.00000000000000000, #67 ) ;
#61 = CARTESIAN_POINT ( 'NONE',  ( 0.1250000000000009714, 0.0000000000000000000, 0.2499999999999988620 ) ) ;
#62 = CARTESIAN_POINT ( 'NONE',  ( 0.1931483474218628205, 0.0000000000000000000, 0.7676380902050274901 ) ) ;
#63 = EDGE_LOOP ( 'NONE', ( #19 ) ) ;
#64 = APPROVAL_DATE_TIME ( #132, #131 ) ;
#65 = EDGE_LOOP ( 'NONE', ( #155 ) ) ;
#66 = ORIENTED_EDGE ( 'NONE', *, *, #13, .T. ) ;
#67 = COORDINATED_UNIVERSAL_TIME_OFFSET ( 1, 0, .AHEAD. ) ;
#68 = CIRCLE ( 'NONE', #39, 0.1249999999999998890 ) ;
#69 = LOCAL_TIME ( 8, 14, 18.00000000000000000, #84 ) ;
#70 = PERSON_AND_ORGANIZATION ( #218, #5 ) ;
#71 = DIRECTION ( 'NONE',  ( 3.491481338843133355E-15, -1.224646799147353207E-16, 1.000000000000000000 ) ) ;
#72 = DIRECTION ( 'NONE',  ( 4.275831445896958607E-31, 1.000000000000000000, 1.224646799147353207E-16 ) ) ;
#73 = CARTESIAN_POINT ( 'NONE',  ( -6.413803915257457113E-31, 2.249659577954772199E-32, -1.836986451539393076E-16 ) ) ;
#74 = AXIS2_PLACEMENT_3D ( 'NONE', #170, #243, #151 ) ;
#75 = DIRECTION ( 'NONE',  ( 3.491481338843133355E-15, -0.0000000000000000000, 1.000000000000000000 ) ) ;
#76 = PLANE ( 'NONE',  #91 ) ;
#77 = PERSON_AND_ORGANIZATION ( #218, #5 ) ;
#78 = AXIS2_PLACEMENT_3D ( 'NONE', #238, #97, #239 ) ;
#79 = CC_DESIGN_SECURITY_CLASSIFICATION ( #113, ( #188 ) ) ;
#80 = CC_DESIGN_APPROVAL ( #117, ( #188 ) ) ;
#81 = ADVANCED_FACE ( 'NONE', ( #35, #126 ), #54, .T. ) ;
#82 = APPROVAL_ROLE ( '' ) ;
#83 = DIRECTION ( 'NONE',  ( -3.491481338843133355E-15, 1.224646799147353207E-16, -1.000000000000000000 ) ) ;
#84 = COORDINATED_UNIVERSAL_TIME_OFFSET ( 1, 0, .AHEAD. ) ;
#85 = CIRCLE ( 'NONE', #10, 1.499999999999996225 ) ;
#86 = CC_DESIGN_PERSON_AND_ORGANIZATION_ASSIGNMENT ( #172, #88, ( #188 ) ) ;
#87 = APPROVAL_PERSON_ORGANIZATION ( #77, #117, #189 ) ;
#88 = PERSON_AND_ORGANIZATION_ROLE ( 'design_supplier' ) ;
#89 = ORIENTED_EDGE ( 'NONE', *, *, #136, .T. ) ;
#90 = EDGE_LOOP ( 'NONE', ( #121 ) ) ;
#91 = AXIS2_PLACEMENT_3D ( 'NONE', #73, #56, #127 ) ;
#92 = ADVANCED_FACE ( 'NONE', ( #240, #9 ), #101, .T. ) ;
#93 = DIRECTION ( 'NONE',  ( -3.491481338843133355E-15, 1.224646799147353207E-16, -1.000000000000000000 ) ) ;
#94 = CARTESIAN_POINT ( 'NONE',  ( 1.326762908760390423E-13, 8.998558695971069014E-33, 38.00000000000000000 ) ) ;
#95 = DIRECTION ( 'NONE',  ( -3.491481338843133355E-15, 1.224646799147353207E-16, -1.000000000000000000 ) ) ;
#96 = PRODUCT_DEFINITION ( 'UNKNOWN', '', #188, #160 ) ;
#97 = DIRECTION ( 'NONE',  ( 3.491481338843133355E-15, -0.0000000000000000000, 1.000000000000000000 ) ) ;
#98 = DATE_AND_TIME ( #40, #48 ) ;
#99 = CIRCLE ( 'NONE', #4, 0.1931483474218601282 ) ;
#100 =( NAMED_UNIT ( * ) SI_UNIT ( $, .STERADIAN. ) SOLID_ANGLE_UNIT ( ) );
#101 = CONICAL_SURFACE ( 'NONE', #183, 1.199999999999998845, 0.7853981633974450594 ) ;
#102 = APPLICATION_PROTOCOL_DEFINITION ( 'international standard', 'config_control_design', 1994, #169 ) ;
#103 = EDGE_LOOP ( 'NONE', ( #46 ) ) ;
#104 = VERTEX_POINT ( 'NONE', #61 ) ;
#105 = CARTESIAN_POINT ( 'NONE',  ( 1.326762908760390423E-13, -4.653657836759941941E-15, 38.00000000000000000 ) ) ;
#106 = PERSON_AND_ORGANIZATION_ROLE ( 'classification_officer' ) ;
#107 = AXIS2_PLACEMENT_3D ( 'NONE', #139, #215, #112 ) ;
#108 = CALENDAR_DATE ( 2021, 10, 11 ) ;
#109 = DIRECTION ( 'NONE',  ( 0.0000000000000000000, 1.000000000000000000, 0.0000000000000000000 ) ) ;
#110 = ADVANCED_FACE ( 'NONE', ( #11 ), #157, .F. ) ;
#111 = DIRECTION ( 'NONE',  ( 1.000000000000000000, 0.0000000000000000000, -3.367987933494884260E-15 ) ) ;
#112 = DIRECTION ( 'NONE',  ( -4.275831445896958607E-31, -1.000000000000000000, -1.224646799147353207E-16 ) ) ;
#113 = SECURITY_CLASSIFICATION ( '', '', #124 ) ;
#114 = DIRECTION ( 'NONE',  ( 0.0000000000000000000, 1.000000000000000000, 0.0000000000000000000 ) ) ;
#115 = CARTESIAN_POINT ( 'NONE',  ( 1.316288464743861212E-13, 1.499999999999994005, 37.69999999999999574 ) ) ;
#116 = CARTESIAN_POINT ( 'NONE',  ( 0.1249999999999998890, 0.0000000000000000000, -4.364351673553912750E-16 ) ) ;
#117 = APPROVAL ( #145, 'UNSPECIFIED' ) ;
#118 = PERSON_AND_ORGANIZATION_ROLE ( 'creator' ) ;
#119 = ORIENTED_EDGE ( 'NONE', *, *, #136, .F. ) ;
#120 = CLOSED_SHELL ( 'NONE', ( #152, #81, #186 ) ) ;
#121 = ORIENTED_EDGE ( 'NONE', *, *, #161, .F. ) ;
#122 = ADVANCED_BREP_SHAPE_REPRESENTATION ( '64357', ( #55, #53, #74 ), #174 ) ;
#123 = DIRECTION ( 'NONE',  ( 1.000000000000000000, 0.0000000000000000000, -3.469446951953622866E-15 ) ) ;
#124 = SECURITY_CLASSIFICATION_LEVEL ( 'unclassified' ) ;
#125 = DIRECTION ( 'NONE',  ( 3.491481338843133355E-15, -0.0000000000000000000, 1.000000000000000000 ) ) ;
#126 = FACE_OUTER_BOUND ( 'NONE', #90, .T. ) ;
#127 = DIRECTION ( 'NONE',  ( -4.275831445896958607E-31, -1.000000000000000000, -1.224646799147353207E-16 ) ) ;
#128 = DIRECTION ( 'NONE',  ( -3.491481338843133355E-15, 1.224646799147353207E-16, -1.000000000000000000 ) ) ;
#129 = CIRCLE ( 'NONE', #78, 0.1250000000000001110 ) ;
#130 = APPROVAL_DATE_TIME ( #98, #117 ) ;
#131 = APPROVAL ( #191, 'UNSPECIFIED' ) ;
#132 = DATE_AND_TIME ( #154, #69 ) ;
#133 = PERSON_AND_ORGANIZATION ( #218, #5 ) ;
#134 = AXIS2_PLACEMENT_3D ( 'NONE', #50, #194, #123 ) ;
#135 = FACE_OUTER_BOUND ( 'NONE', #226, .T. ) ;
#136 = EDGE_CURVE ( 'NONE', #220, #220, #85, .T. ) ;
#137 = EDGE_LOOP ( 'NONE', ( #21 ) ) ;
#138 = DATE_AND_TIME ( #108, #60 ) ;
#139 = CARTESIAN_POINT ( 'NONE',  ( 8.728703347107825500E-16, -2.710505431213766632E-17, 0.2499999999999997780 ) ) ;
#140 = DIRECTION ( 'NONE',  ( -4.275831445896958607E-31, -1.000000000000000000, -1.224646799147353207E-16 ) ) ;
#141 = DIRECTION ( 'NONE',  ( 1.000000000000000000, 0.0000000000000000000, -3.491481338843133355E-15 ) ) ;
#142 = PLANE ( 'NONE',  #34 ) ;
#143 = PRODUCT_RELATED_PRODUCT_CATEGORY ( 'detail', '', ( #44 ) ) ;
#144 = CARTESIAN_POINT ( 'NONE',  ( 0.0000000000000000000, 0.0000000000000000000, 0.0000000000000000000 ) ) ;
#145 = APPROVAL_STATUS ( 'not_yet_approved' ) ;
#146 = AXIS2_PLACEMENT_3D ( 'NONE', #144, #128, #219 ) ;
#147 = VERTEX_POINT ( 'NONE', #227 ) ;
#148 = AXIS2_PLACEMENT_3D ( 'NONE', #178, #6, #141 ) ;
#149 = APPLICATION_CONTEXT ( 'configuration controlled 3d designs of mechanical parts and assemblies' ) ;
#150 = CALENDAR_DATE ( 2021, 10, 11 ) ;
#151 = DIRECTION ( 'NONE',  ( 1.000000000000000000, 0.0000000000000000000, 0.0000000000000000000 ) ) ;
#152 = ADVANCED_FACE ( 'NONE', ( #57 ), #142, .T. ) ;
#153 = EDGE_LOOP ( 'NONE', ( #66 ) ) ;
#154 = CALENDAR_DATE ( 2021, 10, 11 ) ;
#155 = ORIENTED_EDGE ( 'NONE', *, *, #13, .F. ) ;
#156 = ORIENTED_EDGE ( 'NONE', *, *, #36, .F. ) ;
#157 = PLANE ( 'NONE',  #168 ) ;
#158 = APPROVAL_PERSON_ORGANIZATION ( #241, #131, #82 ) ;
#159 = DIRECTION ( 'NONE',  ( 1.000000000000000000, 0.0000000000000000000, -3.469446951953611033E-15 ) ) ;
#160 = DESIGN_CONTEXT ( 'detailed design', #169, 'design' ) ;
#161 = EDGE_CURVE ( 'NONE', #147, #147, #129, .T. ) ;
#162 = DIRECTION ( 'NONE',  ( 3.491481338843133355E-15, -0.0000000000000000000, 1.000000000000000000 ) ) ;
#163 = CARTESIAN_POINT ( 'NONE',  ( 8.728703347107825500E-16, -2.710505431213766632E-17, 0.2499999999999997780 ) ) ;
#164 = CARTESIAN_POINT ( 'NONE',  ( 1.970897521836977191E-14, 0.0000000000000000000, 5.644874855582111550 ) ) ;
#165 = EDGE_CURVE ( 'NONE', #205, #205, #99, .T. ) ;
#166 = APPLICATION_PROTOCOL_DEFINITION ( 'international standard', 'config_control_design', 1994, #149 ) ;
#167 = PERSON_AND_ORGANIZATION ( #218, #5 ) ;
#168 = AXIS2_PLACEMENT_3D ( 'NONE', #94, #12, #72 ) ;
#169 = APPLICATION_CONTEXT ( 'configuration controlled 3d designs of mechanical parts and assemblies' ) ;
#170 = CARTESIAN_POINT ( 'NONE',  ( 0.0000000000000000000, 0.0000000000000000000, 0.0000000000000000000 ) ) ;
#171 = CC_DESIGN_PERSON_AND_ORGANIZATION_ASSIGNMENT ( #133, #185, ( #44 ) ) ;
#172 = PERSON_AND_ORGANIZATION ( #218, #5 ) ;
#173 = ORIENTED_EDGE ( 'NONE', *, *, #45, .F. ) ;
#174 =( GEOMETRIC_REPRESENTATION_CONTEXT ( 3 ) GLOBAL_UNCERTAINTY_ASSIGNED_CONTEXT ( ( #7 ) ) GLOBAL_UNIT_ASSIGNED_CONTEXT ( ( #37, #224, #100 ) ) REPRESENTATION_CONTEXT ( 'NONE', 'WORKASPACE' ) );
#175 = EDGE_LOOP ( 'NONE', ( #119 ) ) ;
#176 = EDGE_LOOP ( 'NONE', ( #23 ) ) ;
#177 = CIRCLE ( 'NONE', #201, 1.199999999999998845 ) ;
#178 = CARTESIAN_POINT ( 'NONE',  ( 8.728703347107818597E-16, 0.0000000000000000000, 0.2499999999999995837 ) ) ;
#179 = LOCAL_TIME ( 8, 14, 18.00000000000000000, #237 ) ;
#180 = FACE_OUTER_BOUND ( 'NONE', #228, .T. ) ;
#181 = DIRECTION ( 'NONE',  ( 1.000000000000000000, 0.0000000000000000000, -3.491481338843133355E-15 ) ) ;
#182 = DIRECTION ( 'NONE',  ( 3.491481338843133355E-15, -0.0000000000000000000, 1.000000000000000000 ) ) ;
#183 = AXIS2_PLACEMENT_3D ( 'NONE', #195, #95, #114 ) ;
#184 = FACE_BOUND ( 'NONE', #192, .T. ) ;
#185 = PERSON_AND_ORGANIZATION_ROLE ( 'design_owner' ) ;
#186 = ADVANCED_FACE ( 'NONE', ( #217 ), #76, .F. ) ;
#187 = CIRCLE ( 'NONE', #24, 0.1250000000000001110 ) ;
#188 = PRODUCT_DEFINITION_FORMATION_WITH_SPECIFIED_SOURCE ( 'ANY', '', #44, .NOT_KNOWN. ) ;
#189 = APPROVAL_ROLE ( '' ) ;
#190 = ORIENTED_EDGE ( 'NONE', *, *, #165, .T. ) ;
#191 = APPROVAL_STATUS ( 'not_yet_approved' ) ;
#192 = EDGE_LOOP ( 'NONE', ( #190 ) ) ;
#193 = FACE_OUTER_BOUND ( 'NONE', #63, .T. ) ;
#194 = DIRECTION ( 'NONE',  ( 3.491481338843133355E-15, -0.0000000000000000000, 1.000000000000000000 ) ) ;
#195 = CARTESIAN_POINT ( 'NONE',  ( 1.326762908760390423E-13, -4.653657836759941941E-15, 38.00000000000000000 ) ) ;
#196 = CARTESIAN_POINT ( 'NONE',  ( 0.0000000000000000000, 0.0000000000000000000, 0.0000000000000000000 ) ) ;
#197 = PRODUCT_DEFINITION_SHAPE ( 'NONE', 'NONE',  #96 ) ;
#198 = CARTESIAN_POINT ( 'NONE',  ( 8.728703347107808736E-16, 0.0000000000000000000, 0.2499999999999993061 ) ) ;
#199 = LOCAL_TIME ( 8, 14, 18.00000000000000000, #202 ) ;
#200 = VERTEX_POINT ( 'NONE', #17 ) ;
#201 = AXIS2_PLACEMENT_3D ( 'NONE', #105, #83, #2 ) ;
#202 = COORDINATED_UNIVERSAL_TIME_OFFSET ( 1, 0, .AHEAD. ) ;
#203 = VERTEX_POINT ( 'NONE', #115 ) ;
#204 = AXIS2_PLACEMENT_3D ( 'NONE', #236, #162, #181 ) ;
#205 = VERTEX_POINT ( 'NONE', #62 ) ;
#206 = VERTEX_POINT ( 'NONE', #116 ) ;
#207 = PLANE ( 'NONE',  #107 ) ;
#208 = ORIENTED_EDGE ( 'NONE', *, *, #45, .T. ) ;
#209 = CC_DESIGN_APPROVAL ( #131, ( #96 ) ) ;
#210 = EDGE_LOOP ( 'NONE', ( #173 ) ) ;
#211 = DATE_AND_TIME ( #51, #179 ) ;
#212 = CARTESIAN_POINT ( 'NONE',  ( 2.680194066936037747E-15, 0.0000000000000000000, 0.7676380902050281563 ) ) ;
#213 = CYLINDRICAL_SURFACE ( 'NONE', #146, 1.499999999999996225 ) ;
#214 = APPROVAL_DATE_TIME ( #211, #231 ) ;
#215 = DIRECTION ( 'NONE',  ( 3.491481338843133355E-15, -1.224646799147353207E-16, 1.000000000000000000 ) ) ;
#216 = ADVANCED_FACE ( 'NONE', ( #8, #180 ), #213, .T. ) ;
#217 = FACE_OUTER_BOUND ( 'NONE', #210, .T. ) ;
#218 = PERSON ( 'UNSPECIFIED', 'UNSPECIFIED', 'UNSPECIFIED', ('UNSPECIFIED'), ('UNSPECIFIED'), ('UNSPECIFIED') ) ;
#219 = DIRECTION ( 'NONE',  ( 4.275831445896958607E-31, 1.000000000000000000, 1.224646799147353207E-16 ) ) ;
#220 = VERTEX_POINT ( 'NONE', #43 ) ;
#221 = CLOSED_SHELL ( 'NONE', ( #216, #92, #110, #223, #222, #31 ) ) ;
#222 = ADVANCED_FACE ( 'NONE', ( #184, #235 ), #41, .T. ) ;
#223 = ADVANCED_FACE ( 'NONE', ( #193, #26 ), #27, .F. ) ;
#224 =( NAMED_UNIT ( * ) PLANE_ANGLE_UNIT ( ) SI_UNIT ( $, .RADIAN. ) );
#225 = DATE_TIME_ROLE ( 'creation_date' ) ;
#226 = EDGE_LOOP ( 'NONE', ( #156 ) ) ;
#227 = CARTESIAN_POINT ( 'NONE',  ( 0.1250000000000009714, 0.0000000000000000000, 0.2499999999999988620 ) ) ;
#228 = EDGE_LOOP ( 'NONE', ( #89 ) ) ;
#229 = AXIS2_PLACEMENT_3D ( 'NONE', #30, #93, #109 ) ;
#230 = APPROVAL_ROLE ( '' ) ;
#231 = APPROVAL ( #28, 'UNSPECIFIED' ) ;
#232 = EDGE_LOOP ( 'NONE', ( #208 ) ) ;
#233 = SHAPE_DEFINITION_REPRESENTATION ( #197, #122 ) ;
#234 = EDGE_CURVE ( 'NONE', #203, #203, #47, .T. ) ;
#235 = FACE_OUTER_BOUND ( 'NONE', #175, .T. ) ;
#236 = CARTESIAN_POINT ( 'NONE',  ( -1.786038389295302186E-30, 0.0000000000000000000, -5.115417256925931626E-16 ) ) ;
#237 = COORDINATED_UNIVERSAL_TIME_OFFSET ( 1, 0, .AHEAD. ) ;
#238 = CARTESIAN_POINT ( 'NONE',  ( 8.728703347107808736E-16, 0.0000000000000000000, 0.2499999999999993061 ) ) ;
#239 = DIRECTION ( 'NONE',  ( 1.000000000000000000, 0.0000000000000000000, -3.469446951953611033E-15 ) ) ;
#240 = FACE_OUTER_BOUND ( 'NONE', #176, .T. ) ;
#241 = PERSON_AND_ORGANIZATION ( #218, #5 ) ;
#242 = CC_DESIGN_DATE_AND_TIME_ASSIGNMENT ( #20, #225, ( #96 ) ) ;
#243 = DIRECTION ( 'NONE',  ( 0.0000000000000000000, 0.0000000000000000000, 1.000000000000000000 ) ) ;
ENDSEC;
END-ISO-10303-21;
