ISO-10303-21;
HEADER;
FILE_DESCRIPTION (( 'STEP AP203' ),
    '1' );
FILE_NAME ('64356.step',
    '2021-11-10T07:14:18',
    ( '' ),
    ( '' ),
    'SwSTEP 2.0',
    'SolidWorks 2019',
    '' );
FILE_SCHEMA (( 'CONFIG_CONTROL_DESIGN' ));
ENDSEC;

DATA;
#1 = CIRCLE ( 'NONE', #60, 1.199999999999998845 ) ;
#2 = CARTESIAN_POINT ( 'NONE',  ( 0.0000000000000000000, 0.0000000000000000000, 0.0000000000000000000 ) ) ;
#3 = DATE_TIME_ROLE ( 'classification_date' ) ;
#4 = AXIS2_PLACEMENT_3D ( 'NONE', #213, #49, #86 ) ;
#5 = PERSON_AND_ORGANIZATION ( #217, #147 ) ;
#6 = ADVANCED_FACE ( 'NONE', ( #156 ), #187, .F. ) ;
#7 = ORIENTED_EDGE ( 'NONE', *, *, #133, .T. ) ;
#8 = CIRCLE ( 'NONE', #159, 0.09999999999999982514 ) ;
#9 = EDGE_LOOP ( 'NONE', ( #100 ) ) ;
#10 = EDGE_LOOP ( 'NONE', ( #47 ) ) ;
#11 = ORIENTED_EDGE ( 'NONE', *, *, #63, .T. ) ;
#12 = DIRECTION ( 'NONE',  ( 3.491481338843133355E-15, -0.0000000000000000000, 1.000000000000000000 ) ) ;
#13 = VERTEX_POINT ( 'NONE', #123 ) ;
#14 = DIRECTION ( 'NONE',  ( 3.491481338843133355E-15, -1.224646799147353207E-16, 1.000000000000000000 ) ) ;
#15 = FACE_BOUND ( 'NONE', #189, .T. ) ;
#16 = CARTESIAN_POINT ( 'NONE',  ( -6.413803915257457113E-31, 2.249659577954772199E-32, -1.836986451539393076E-16 ) ) ;
#17 = EDGE_CURVE ( 'NONE', #146, #146, #99, .T. ) ;
#18 = COORDINATED_UNIVERSAL_TIME_OFFSET ( 1, 0, .AHEAD. ) ;
#19 = PERSON_AND_ORGANIZATION_ROLE ( 'creator' ) ;
#20 = APPLICATION_PROTOCOL_DEFINITION ( 'international standard', 'config_control_design', 1994, #50 ) ;
#21 = PERSON_AND_ORGANIZATION ( #217, #147 ) ;
#22 = COORDINATED_UNIVERSAL_TIME_OFFSET ( 1, 0, .AHEAD. ) ;
#23 = AXIS2_PLACEMENT_3D ( 'NONE', #140, #74, #51 ) ;
#24 = FACE_OUTER_BOUND ( 'NONE', #98, .T. ) ;
#25 = EDGE_LOOP ( 'NONE', ( #214 ) ) ;
#26 = PRODUCT_DEFINITION_SHAPE ( 'NONE', 'NONE',  #94 ) ;
#27 = AXIS2_PLACEMENT_3D ( 'NONE', #16, #14, #92 ) ;
#28 = ORIENTED_EDGE ( 'NONE', *, *, #17, .T. ) ;
#29 = CC_DESIGN_PERSON_AND_ORGANIZATION_ASSIGNMENT ( #5, #185, ( #210 ) ) ;
#30 = CARTESIAN_POINT ( 'NONE',  ( 6.982962677686259808E-16, -2.529805069132848096E-17, 0.1999999999999997891 ) ) ;
#31 = CONICAL_SURFACE ( 'NONE', #125, 1.199999999999998845, 0.7853981633974450594 ) ;
#32 = DIRECTION ( 'NONE',  ( 0.0000000000000000000, 1.000000000000000000, 0.0000000000000000000 ) ) ;
#33 = CARTESIAN_POINT ( 'NONE',  ( 0.1681483474218623542, 0.0000000000000000000, 0.7176380902050276678 ) ) ;
#34 = DIRECTION ( 'NONE',  ( 4.275831445896958607E-31, 1.000000000000000000, 1.224646799147353207E-16 ) ) ;
#35 = TOROIDAL_SURFACE ( 'NONE', #96, 2.100000000000000089, 2.000000000000000000 ) ;
#36 = APPROVAL_PERSON_ORGANIZATION ( #243, #191, #228 ) ;
#37 = VERTEX_POINT ( 'NONE', #176 ) ;
#38 = COORDINATED_UNIVERSAL_TIME_OFFSET ( 1, 0, .AHEAD. ) ;
#39 = DATE_AND_TIME ( #44, #76 ) ;
#40 = PERSON_AND_ORGANIZATION ( #217, #147 ) ;
#41 = DESIGN_CONTEXT ( 'detailed design', #50, 'design' ) ;
#42 = APPLICATION_CONTEXT ( 'configuration controlled 3d designs of mechanical parts and assemblies' ) ;
#43 =( NAMED_UNIT ( * ) PLANE_ANGLE_UNIT ( ) SI_UNIT ( $, .RADIAN. ) );
#44 = CALENDAR_DATE ( 2021, 10, 11 ) ;
#45 = PRODUCT_DEFINITION_FORMATION_WITH_SPECIFIED_SOURCE ( 'ANY', '', #210, .NOT_KNOWN. ) ;
#46 = CARTESIAN_POINT ( 'NONE',  ( 6.982962677686242059E-16, 0.0000000000000000000, 0.1999999999999993172 ) ) ;
#47 = ORIENTED_EDGE ( 'NONE', *, *, #141, .F. ) ;
#48 = CC_DESIGN_SECURITY_CLASSIFICATION ( #179, ( #45 ) ) ;
#49 = DIRECTION ( 'NONE',  ( 3.491481338843133355E-15, -0.0000000000000000000, 1.000000000000000000 ) ) ;
#50 = APPLICATION_CONTEXT ( 'configuration controlled 3d designs of mechanical parts and assemblies' ) ;
#51 = DIRECTION ( 'NONE',  ( 4.275831445896958607E-31, 1.000000000000000000, 1.224646799147353207E-16 ) ) ;
#52 = VERTEX_POINT ( 'NONE', #54 ) ;
#53 = CC_DESIGN_PERSON_AND_ORGANIZATION_ASSIGNMENT ( #21, #57, ( #45 ) ) ;
#54 = CARTESIAN_POINT ( 'NONE',  ( 0.1000000000000000472, 0.0000000000000000000, -3.491481338843134834E-16 ) ) ;
#55 = PLANE ( 'NONE',  #27 ) ;
#56 = APPROVAL_PERSON_ORGANIZATION ( #207, #225, #182 ) ;
#57 = PERSON_AND_ORGANIZATION_ROLE ( 'creator' ) ;
#58 =( NAMED_UNIT ( * ) SI_UNIT ( $, .STERADIAN. ) SOLID_ANGLE_UNIT ( ) );
#59 = ADVANCED_FACE ( 'NONE', ( #24 ), #117, .T. ) ;
#60 = AXIS2_PLACEMENT_3D ( 'NONE', #237, #121, #105 ) ;
#61 = DIRECTION ( 'NONE',  ( 1.000000000000000000, 0.0000000000000000000, 0.0000000000000000000 ) ) ;
#62 = APPROVAL_DATE_TIME ( #110, #191 ) ;
#63 = EDGE_CURVE ( 'NONE', #52, #52, #66, .T. ) ;
#64 = ORIENTED_EDGE ( 'NONE', *, *, #211, .F. ) ;
#65 = ORIENTED_EDGE ( 'NONE', *, *, #211, .T. ) ;
#66 = CIRCLE ( 'NONE', #129, 0.1000000000000000472 ) ;
#67 = DIRECTION ( 'NONE',  ( -4.275831445896958607E-31, -1.000000000000000000, -1.224646799147353207E-16 ) ) ;
#68 = FACE_OUTER_BOUND ( 'NONE', #233, .T. ) ;
#69 = FACE_OUTER_BOUND ( 'NONE', #116, .T. ) ;
#70 = AXIS2_PLACEMENT_3D ( 'NONE', #30, #235, #67 ) ;
#71 = DIRECTION ( 'NONE',  ( -3.491481338843133355E-15, 1.224646799147353207E-16, -1.000000000000000000 ) ) ;
#72 = EDGE_CURVE ( 'NONE', #199, #199, #196, .T. ) ;
#73 = CARTESIAN_POINT ( 'NONE',  ( 6.982962677686242059E-16, 0.0000000000000000000, 0.1999999999999993172 ) ) ;
#74 = DIRECTION ( 'NONE',  ( -3.491481338843133355E-15, 1.224646799147353207E-16, -1.000000000000000000 ) ) ;
#75 = DATE_TIME_ROLE ( 'creation_date' ) ;
#76 = LOCAL_TIME ( 8, 14, 18.00000000000000000, #22 ) ;
#77 = APPLICATION_PROTOCOL_DEFINITION ( 'international standard', 'config_control_design', 1994, #42 ) ;
#78 = APPROVAL_DATE_TIME ( #165, #225 ) ;
#79 = COORDINATED_UNIVERSAL_TIME_OFFSET ( 1, 0, .AHEAD. ) ;
#80 = CLOSED_SHELL ( 'NONE', ( #232, #215, #167, #136, #122, #6 ) ) ;
#81 = PERSON_AND_ORGANIZATION_ROLE ( 'design_supplier' ) ;
#82 = ORIENTED_EDGE ( 'NONE', *, *, #72, .F. ) ;
#83 = FACE_BOUND ( 'NONE', #135, .T. ) ;
#84 = DIRECTION ( 'NONE',  ( 3.491481338843133355E-15, -1.224646799147353207E-16, 1.000000000000000000 ) ) ;
#85 = DIRECTION ( 'NONE',  ( -4.275831445896958607E-31, -1.000000000000000000, -1.224646799147353207E-16 ) ) ;
#86 = DIRECTION ( 'NONE',  ( 1.000000000000000000, 0.0000000000000000000, -3.223945370588145407E-15 ) ) ;
#87 = CC_DESIGN_APPROVAL ( #225, ( #94 ) ) ;
#88 = CC_DESIGN_APPROVAL ( #191, ( #179 ) ) ;
#89 = FACE_OUTER_BOUND ( 'NONE', #193, .T. ) ;
#90 = DIRECTION ( 'NONE',  ( 1.000000000000000000, 0.0000000000000000000, -3.523657060577895721E-15 ) ) ;
#91 = DIRECTION ( 'NONE',  ( -3.491481338843133355E-15, 1.224646799147353207E-16, -1.000000000000000000 ) ) ;
#92 = DIRECTION ( 'NONE',  ( -4.275831445896958607E-31, -1.000000000000000000, -1.224646799147353207E-16 ) ) ;
#93 = APPROVAL_STATUS ( 'not_yet_approved' ) ;
#94 = PRODUCT_DEFINITION ( 'UNKNOWN', '', #45, #41 ) ;
#95 = CIRCLE ( 'NONE', #205, 1.499999999999996225 ) ;
#96 = AXIS2_PLACEMENT_3D ( 'NONE', #108, #201, #139 ) ;
#97 = CARTESIAN_POINT ( 'NONE',  ( 1.316288464743861212E-13, -4.616918432785521081E-15, 37.69999999999999574 ) ) ;
#98 = EDGE_LOOP ( 'NONE', ( #131 ) ) ;
#99 = CIRCLE ( 'NONE', #4, 0.1681483474218598562 ) ;
#100 = ORIENTED_EDGE ( 'NONE', *, *, #72, .T. ) ;
#101 = DIRECTION ( 'NONE',  ( 1.000000000000000000, 0.0000000000000000000, -3.491481338843133355E-15 ) ) ;
#102 = CIRCLE ( 'NONE', #142, 0.09999999999999982514 ) ;
#103 = FACE_OUTER_BOUND ( 'NONE', #114, .T. ) ;
#104 = CARTESIAN_POINT ( 'NONE',  ( 1.316288464743861212E-13, 1.499999999999994005, 37.69999999999999574 ) ) ;
#105 = DIRECTION ( 'NONE',  ( 0.0000000000000000000, 1.000000000000000000, 0.0000000000000000000 ) ) ;
#106 = CC_DESIGN_PERSON_AND_ORGANIZATION_ASSIGNMENT ( #40, #81, ( #45 ) ) ;
#107 = VERTEX_POINT ( 'NONE', #126 ) ;
#108 = CARTESIAN_POINT ( 'NONE',  ( 6.982962677686250933E-16, 0.0000000000000000000, 0.1999999999999995393 ) ) ;
#109 = DATE_AND_TIME ( #204, #174 ) ;
#110 = DATE_AND_TIME ( #151, #166 ) ;
#111 = CLOSED_SHELL ( 'NONE', ( #59, #220, #145 ) ) ;
#112 = CALENDAR_DATE ( 2021, 10, 11 ) ;
#113 = APPROVAL_ROLE ( '' ) ;
#114 = EDGE_LOOP ( 'NONE', ( #7 ) ) ;
#115 = EDGE_LOOP ( 'NONE', ( #64 ) ) ;
#116 = EDGE_LOOP ( 'NONE', ( #171 ) ) ;
#117 = PLANE ( 'NONE',  #70 ) ;
#118 = CC_DESIGN_PERSON_AND_ORGANIZATION_ASSIGNMENT ( #127, #19, ( #94 ) ) ;
#119 = EDGE_LOOP ( 'NONE', ( #169 ) ) ;
#120 =( LENGTH_UNIT ( ) NAMED_UNIT ( * ) SI_UNIT ( .MILLI., .METRE. ) );
#121 = DIRECTION ( 'NONE',  ( -3.491481338843133355E-15, 1.224646799147353207E-16, -1.000000000000000000 ) ) ;
#122 = ADVANCED_FACE ( 'NONE', ( #83, #154 ), #200, .T. ) ;
#123 = CARTESIAN_POINT ( 'NONE',  ( 1.326762908760390423E-13, 1.199999999999994182, 38.00000000000000000 ) ) ;
#124 = DIRECTION ( 'NONE',  ( 1.000000000000000000, 0.0000000000000000000, -3.491481338843133750E-15 ) ) ;
#125 = AXIS2_PLACEMENT_3D ( 'NONE', #238, #71, #32 ) ;
#126 = CARTESIAN_POINT ( 'NONE',  ( 0.1000000000000005329, 0.0000000000000000000, 0.1999999999999989564 ) ) ;
#127 = PERSON_AND_ORGANIZATION ( #217, #147 ) ;
#128 = MECHANICAL_CONTEXT ( 'NONE', #42, 'mechanical' ) ;
#129 = AXIS2_PLACEMENT_3D ( 'NONE', #138, #153, #101 ) ;
#130 = SHAPE_DEFINITION_REPRESENTATION ( #26, #203 ) ;
#131 = ORIENTED_EDGE ( 'NONE', *, *, #163, .T. ) ;
#132 = LOCAL_TIME ( 8, 14, 18.00000000000000000, #38 ) ;
#133 = EDGE_CURVE ( 'NONE', #37, #37, #8, .T. ) ;
#134 = DIRECTION ( 'NONE',  ( 3.491481338843133355E-15, -0.0000000000000000000, 1.000000000000000000 ) ) ;
#135 = EDGE_LOOP ( 'NONE', ( #28 ) ) ;
#136 = ADVANCED_FACE ( 'NONE', ( #103, #242 ), #35, .F. ) ;
#137 = ORIENTED_EDGE ( 'NONE', *, *, #17, .F. ) ;
#138 = CARTESIAN_POINT ( 'NONE',  ( 0.0000000000000000000, 0.0000000000000000000, 0.0000000000000000000 ) ) ;
#139 = DIRECTION ( 'NONE',  ( 1.000000000000000000, 0.0000000000000000000, -3.491481338843132961E-15 ) ) ;
#140 = CARTESIAN_POINT ( 'NONE',  ( 0.0000000000000000000, 0.0000000000000000000, 0.0000000000000000000 ) ) ;
#141 = EDGE_CURVE ( 'NONE', #175, #175, #95, .T. ) ;
#142 = AXIS2_PLACEMENT_3D ( 'NONE', #73, #12, #239 ) ;
#143 = FACE_OUTER_BOUND ( 'NONE', #25, .T. ) ;
#144 = FACE_OUTER_BOUND ( 'NONE', #229, .T. ) ;
#145 = ADVANCED_FACE ( 'NONE', ( #144 ), #55, .F. ) ;
#146 = VERTEX_POINT ( 'NONE', #33 ) ;
#147 = ORGANIZATION ( 'UNSPECIFIED', 'UNSPECIFIED', '' ) ;
#148 = CALENDAR_DATE ( 2021, 10, 11 ) ;
#149 = PERSON_AND_ORGANIZATION_ROLE ( 'classification_officer' ) ;
#150 = PRODUCT_RELATED_PRODUCT_CATEGORY ( 'detail', '', ( #210 ) ) ;
#151 = CALENDAR_DATE ( 2021, 10, 11 ) ;
#152 = CC_DESIGN_DATE_AND_TIME_ASSIGNMENT ( #109, #3, ( #179 ) ) ;
#153 = DIRECTION ( 'NONE',  ( 3.491481338843133355E-15, -0.0000000000000000000, 1.000000000000000000 ) ) ;
#154 = FACE_OUTER_BOUND ( 'NONE', #10, .T. ) ;
#155 = ORIENTED_EDGE ( 'NONE', *, *, #63, .F. ) ;
#156 = FACE_OUTER_BOUND ( 'NONE', #119, .T. ) ;
#157 =( GEOMETRIC_REPRESENTATION_CONTEXT ( 3 ) GLOBAL_UNCERTAINTY_ASSIGNED_CONTEXT ( ( #184 ) ) GLOBAL_UNIT_ASSIGNED_CONTEXT ( ( #120, #43, #58 ) ) REPRESENTATION_CONTEXT ( 'NONE', 'WORKASPACE' ) );
#158 = FACE_OUTER_BOUND ( 'NONE', #115, .T. ) ;
#159 = AXIS2_PLACEMENT_3D ( 'NONE', #46, #222, #90 ) ;
#160 = DIRECTION ( 'NONE',  ( 3.491481338843133355E-15, -0.0000000000000000000, 1.000000000000000000 ) ) ;
#161 = PLANE ( 'NONE',  #236 ) ;
#162 = PERSON_AND_ORGANIZATION ( #217, #147 ) ;
#163 = EDGE_CURVE ( 'NONE', #107, #107, #102, .T. ) ;
#164 = PERSON_AND_ORGANIZATION ( #217, #147 ) ;
#165 = DATE_AND_TIME ( #112, #132 ) ;
#166 = LOCAL_TIME ( 8, 14, 18.00000000000000000, #79 ) ;
#167 = ADVANCED_FACE ( 'NONE', ( #158 ), #161, .F. ) ;
#168 = DIRECTION ( 'NONE',  ( 0.0000000000000000000, 1.000000000000000000, 0.0000000000000000000 ) ) ;
#169 = ORIENTED_EDGE ( 'NONE', *, *, #133, .F. ) ;
#170 = AXIS2_PLACEMENT_3D ( 'NONE', #231, #134, #209 ) ;
#171 = ORIENTED_EDGE ( 'NONE', *, *, #141, .T. ) ;
#172 = DIRECTION ( 'NONE',  ( -3.491481338843133355E-15, 1.224646799147353207E-16, -1.000000000000000000 ) ) ;
#173 = APPROVAL_PERSON_ORGANIZATION ( #162, #178, #113 ) ;
#174 = LOCAL_TIME ( 8, 14, 18.00000000000000000, #18 ) ;
#175 = VERTEX_POINT ( 'NONE', #195 ) ;
#176 = CARTESIAN_POINT ( 'NONE',  ( 0.1000000000000005329, 0.0000000000000000000, 0.1999999999999989564 ) ) ;
#177 = CYLINDRICAL_SURFACE ( 'NONE', #234, 0.09999999999999993616 ) ;
#178 = APPROVAL ( #224, 'UNSPECIFIED' ) ;
#179 = SECURITY_CLASSIFICATION ( '', '', #202 ) ;
#180 = CARTESIAN_POINT ( 'NONE',  ( 1.326762908760390423E-13, 8.998558695971069014E-33, 38.00000000000000000 ) ) ;
#181 = DATE_AND_TIME ( #148, #223 ) ;
#182 = APPROVAL_ROLE ( '' ) ;
#183 = DIRECTION ( 'NONE',  ( 0.0000000000000000000, 0.0000000000000000000, 1.000000000000000000 ) ) ;
#184 = UNCERTAINTY_MEASURE_WITH_UNIT (LENGTH_MEASURE( 1.000000000000000082E-05 ), #120, 'distance_accuracy_value', 'NONE');
#185 = PERSON_AND_ORGANIZATION_ROLE ( 'design_owner' ) ;
#186 = AXIS2_PLACEMENT_3D ( 'NONE', #2, #183, #61 ) ;
#187 = PLANE ( 'NONE',  #226 ) ;
#188 = MANIFOLD_SOLID_BREP ( 'Corps-Déplacer/Copier1[1]', #80 ) ;
#189 = EDGE_LOOP ( 'NONE', ( #65 ) ) ;
#190 = MANIFOLD_SOLID_BREP ( 'Corps-Déplacer/Copier1[2]', #111 ) ;
#191 = APPROVAL ( #93, 'UNSPECIFIED' ) ;
#192 = CARTESIAN_POINT ( 'NONE',  ( 6.982962677686259808E-16, -2.529805069132848096E-17, 0.1999999999999997891 ) ) ;
#193 = EDGE_LOOP ( 'NONE', ( #11 ) ) ;
#194 = CC_DESIGN_DATE_AND_TIME_ASSIGNMENT ( #181, #75, ( #94 ) ) ;
#195 = CARTESIAN_POINT ( 'NONE',  ( 1.500000000000015987, 0.0000000000000000000, 5.688176125771330582 ) ) ;
#196 = CIRCLE ( 'NONE', #218, 1.499999999999998446 ) ;
#197 = DIRECTION ( 'NONE',  ( 1.000000000000000000, 0.0000000000000000000, -3.469446951953622866E-15 ) ) ;
#198 = CARTESIAN_POINT ( 'NONE',  ( 1.986016079518365028E-14, 0.0000000000000000000, 5.688176125771335911 ) ) ;
#199 = VERTEX_POINT ( 'NONE', #104 ) ;
#200 = CONICAL_SURFACE ( 'NONE', #170, 1.499999999999996225, 0.2617993877991428575 ) ;
#201 = DIRECTION ( 'NONE',  ( 3.491481338843133355E-15, -0.0000000000000000000, 1.000000000000000000 ) ) ;
#202 = SECURITY_CLASSIFICATION_LEVEL ( 'unclassified' ) ;
#203 = ADVANCED_BREP_SHAPE_REPRESENTATION ( '64356', ( #188, #190, #186 ), #157 ) ;
#204 = CALENDAR_DATE ( 2021, 10, 11 ) ;
#205 = AXIS2_PLACEMENT_3D ( 'NONE', #198, #221, #197 ) ;
#206 = APPROVAL_DATE_TIME ( #39, #178 ) ;
#207 = PERSON_AND_ORGANIZATION ( #217, #147 ) ;
#208 = APPROVAL_STATUS ( 'not_yet_approved' ) ;
#209 = DIRECTION ( 'NONE',  ( 1.000000000000000000, 0.0000000000000000000, -3.469446951953622866E-15 ) ) ;
#210 = PRODUCT ( '64356', '64356', '', ( #128 ) ) ;
#211 = EDGE_CURVE ( 'NONE', #13, #13, #1, .T. ) ;
#212 = EDGE_LOOP ( 'NONE', ( #137 ) ) ;
#213 = CARTESIAN_POINT ( 'NONE',  ( 2.505619999993881080E-15, 0.0000000000000000000, 0.7176380902050282229 ) ) ;
#214 = ORIENTED_EDGE ( 'NONE', *, *, #163, .F. ) ;
#215 = ADVANCED_FACE ( 'NONE', ( #68, #15 ), #31, .T. ) ;
#216 = FACE_OUTER_BOUND ( 'NONE', #9, .T. ) ;
#217 = PERSON ( 'UNSPECIFIED', 'UNSPECIFIED', 'UNSPECIFIED', ('UNSPECIFIED'), ('UNSPECIFIED'), ('UNSPECIFIED') ) ;
#218 = AXIS2_PLACEMENT_3D ( 'NONE', #97, #172, #168 ) ;
#219 = CARTESIAN_POINT ( 'NONE',  ( -1.786038389295302186E-30, 0.0000000000000000000, -5.115417256925931626E-16 ) ) ;
#220 = ADVANCED_FACE ( 'NONE', ( #89, #143 ), #177, .T. ) ;
#221 = DIRECTION ( 'NONE',  ( 3.491481338843133355E-15, -0.0000000000000000000, 1.000000000000000000 ) ) ;
#222 = DIRECTION ( 'NONE',  ( 3.491481338843133355E-15, -0.0000000000000000000, 1.000000000000000000 ) ) ;
#223 = LOCAL_TIME ( 8, 14, 18.00000000000000000, #227 ) ;
#224 = APPROVAL_STATUS ( 'not_yet_approved' ) ;
#225 = APPROVAL ( #208, 'UNSPECIFIED' ) ;
#226 = AXIS2_PLACEMENT_3D ( 'NONE', #192, #84, #85 ) ;
#227 = COORDINATED_UNIVERSAL_TIME_OFFSET ( 1, 0, .AHEAD. ) ;
#228 = APPROVAL_ROLE ( '' ) ;
#229 = EDGE_LOOP ( 'NONE', ( #155 ) ) ;
#230 = CC_DESIGN_APPROVAL ( #178, ( #45 ) ) ;
#231 = CARTESIAN_POINT ( 'NONE',  ( 1.986016079518365028E-14, 0.0000000000000000000, 5.688176125771335911 ) ) ;
#232 = ADVANCED_FACE ( 'NONE', ( #216, #69 ), #241, .T. ) ;
#233 = EDGE_LOOP ( 'NONE', ( #82 ) ) ;
#234 = AXIS2_PLACEMENT_3D ( 'NONE', #219, #160, #124 ) ;
#235 = DIRECTION ( 'NONE',  ( 3.491481338843133355E-15, -1.224646799147353207E-16, 1.000000000000000000 ) ) ;
#236 = AXIS2_PLACEMENT_3D ( 'NONE', #180, #91, #34 ) ;
#237 = CARTESIAN_POINT ( 'NONE',  ( 1.326762908760390423E-13, -4.653657836759941941E-15, 38.00000000000000000 ) ) ;
#238 = CARTESIAN_POINT ( 'NONE',  ( 1.326762908760390423E-13, -4.653657836759941941E-15, 38.00000000000000000 ) ) ;
#239 = DIRECTION ( 'NONE',  ( 1.000000000000000000, 0.0000000000000000000, -3.523657060577895721E-15 ) ) ;
#240 = CC_DESIGN_PERSON_AND_ORGANIZATION_ASSIGNMENT ( #164, #149, ( #179 ) ) ;
#241 = CYLINDRICAL_SURFACE ( 'NONE', #23, 1.499999999999996225 ) ;
#242 = FACE_OUTER_BOUND ( 'NONE', #212, .T. ) ;
#243 = PERSON_AND_ORGANIZATION ( #217, #147 ) ;
ENDSEC;
END-ISO-10303-21;
