ISO-10303-21;
HEADER;
FILE_DESCRIPTION (( 'STEP AP203' ),
    '1' );
FILE_NAME ('64355.step',
    '2021-11-10T07:14:17',
    ( '' ),
    ( '' ),
    'SwSTEP 2.0',
    'SolidWorks 2019',
    '' );
FILE_SCHEMA (( 'CONFIG_CONTROL_DESIGN' ));
ENDSEC;

DATA;
#1 = DIRECTION ( 'NONE',  ( 3.491481338843133355E-15, -0.0000000000000000000, 1.000000000000000000 ) ) ;
#2 = CARTESIAN_POINT ( 'NONE',  ( 0.07499999999999998335, 0.0000000000000000000, -2.618611004132349030E-16 ) ) ;
#3 = PLANE ( 'NONE',  #161 ) ;
#4 = DIRECTION ( 'NONE',  ( 4.275831445896958607E-31, 1.000000000000000000, 1.224646799147353207E-16 ) ) ;
#5 = CIRCLE ( 'NONE', #165, 1.499999999999998446 ) ;
#6 = PERSON_AND_ORGANIZATION_ROLE ( 'design_supplier' ) ;
#7 = AXIS2_PLACEMENT_3D ( 'NONE', #148, #49, #204 ) ;
#8 = PERSON_AND_ORGANIZATION ( #120, #93 ) ;
#9 = ADVANCED_FACE ( 'NONE', ( #10 ), #122, .F. ) ;
#10 = FACE_OUTER_BOUND ( 'NONE', #12, .T. ) ;
#11 = AXIS2_PLACEMENT_3D ( 'NONE', #211, #109, #152 ) ;
#12 = EDGE_LOOP ( 'NONE', ( #14 ) ) ;
#13 = EDGE_LOOP ( 'NONE', ( #32 ) ) ;
#14 = ORIENTED_EDGE ( 'NONE', *, *, #74, .F. ) ;
#15 = LOCAL_TIME ( 8, 14, 17.00000000000000000, #163 ) ;
#16 = DIRECTION ( 'NONE',  ( 3.491481338843133355E-15, -0.0000000000000000000, 1.000000000000000000 ) ) ;
#17 = DIRECTION ( 'NONE',  ( 0.0000000000000000000, 1.000000000000000000, 0.0000000000000000000 ) ) ;
#18 = ADVANCED_FACE ( 'NONE', ( #99, #48 ), #127, .T. ) ;
#19 =( NAMED_UNIT ( * ) SI_UNIT ( $, .STERADIAN. ) SOLID_ANGLE_UNIT ( ) );
#20 = CARTESIAN_POINT ( 'NONE',  ( -6.413803915257457113E-31, 2.249659577954772199E-32, -1.836986451539393076E-16 ) ) ;
#21 = PERSON_AND_ORGANIZATION ( #120, #93 ) ;
#22 = AXIS2_PLACEMENT_3D ( 'NONE', #58, #113, #45 ) ;
#23 = COORDINATED_UNIVERSAL_TIME_OFFSET ( 1, 0, .AHEAD. ) ;
#24 = PERSON_AND_ORGANIZATION ( #120, #93 ) ;
#25 = AXIS2_PLACEMENT_3D ( 'NONE', #227, #129, #108 ) ;
#26 = DATE_AND_TIME ( #218, #15 ) ;
#27 = CARTESIAN_POINT ( 'NONE',  ( 2.331045933051724412E-15, 0.0000000000000000000, 0.6676380902050281785 ) ) ;
#28 = EDGE_CURVE ( 'NONE', #171, #171, #5, .T. ) ;
#29 = DIRECTION ( 'NONE',  ( 3.491481338843133355E-15, -0.0000000000000000000, 1.000000000000000000 ) ) ;
#30 = CIRCLE ( 'NONE', #142, 0.1431483474218600005 ) ;
#31 = CARTESIAN_POINT ( 'NONE',  ( 1.326762908760390423E-13, -4.653657836759941941E-15, 38.00000000000000000 ) ) ;
#32 = ORIENTED_EDGE ( 'NONE', *, *, #28, .F. ) ;
#33 = ORIENTED_EDGE ( 'NONE', *, *, #61, .T. ) ;
#34 = CIRCLE ( 'NONE', #7, 1.499999999999996225 ) ;
#35 = VERTEX_POINT ( 'NONE', #192 ) ;
#36 = CARTESIAN_POINT ( 'NONE',  ( 0.07500000000000051070, 0.0000000000000000000, 0.1499999999999989952 ) ) ;
#37 = UNCERTAINTY_MEASURE_WITH_UNIT (LENGTH_MEASURE( 1.000000000000000082E-05 ), #73, 'distance_accuracy_value', 'NONE');
#38 = DIRECTION ( 'NONE',  ( 3.491481338843133355E-15, -1.224646799147353207E-16, 1.000000000000000000 ) ) ;
#39 = PLANE ( 'NONE',  #60 ) ;
#40 = EDGE_CURVE ( 'NONE', #112, #112, #30, .T. ) ;
#41 = DATE_AND_TIME ( #42, #124 ) ;
#42 = CALENDAR_DATE ( 2021, 10, 11 ) ;
#43 = AXIS2_PLACEMENT_3D ( 'NONE', #20, #38, #170 ) ;
#44 = PERSON_AND_ORGANIZATION_ROLE ( 'creator' ) ;
#45 = DIRECTION ( 'NONE',  ( 1.000000000000000000, 0.0000000000000000000, 0.0000000000000000000 ) ) ;
#46 = ORIENTED_EDGE ( 'NONE', *, *, #40, .F. ) ;
#47 = CC_DESIGN_PERSON_AND_ORGANIZATION_ASSIGNMENT ( #92, #201, ( #111 ) ) ;
#48 = FACE_OUTER_BOUND ( 'NONE', #106, .T. ) ;
#49 = DIRECTION ( 'NONE',  ( 3.491481338843133355E-15, -0.0000000000000000000, 1.000000000000000000 ) ) ;
#50 = FACE_OUTER_BOUND ( 'NONE', #166, .T. ) ;
#51 = DIRECTION ( 'NONE',  ( 1.000000000000000000, 0.0000000000000000000, -3.786988086178693069E-15 ) ) ;
#52 = AXIS2_PLACEMENT_3D ( 'NONE', #31, #66, #147 ) ;
#53 = CARTESIAN_POINT ( 'NONE',  ( 1.326762908760390423E-13, 1.199999999999994182, 38.00000000000000000 ) ) ;
#54 = FACE_OUTER_BOUND ( 'NONE', #164, .T. ) ;
#55 = PRODUCT_DEFINITION ( 'UNKNOWN', '', #196, #189 ) ;
#56 = DIRECTION ( 'NONE',  ( -3.491481338843133355E-15, 1.224646799147353207E-16, -1.000000000000000000 ) ) ;
#57 = APPLICATION_PROTOCOL_DEFINITION ( 'international standard', 'config_control_design', 1994, #145 ) ;
#58 = CARTESIAN_POINT ( 'NONE',  ( 0.0000000000000000000, 0.0000000000000000000, 0.0000000000000000000 ) ) ;
#59 = PERSON_AND_ORGANIZATION ( #120, #93 ) ;
#60 = AXIS2_PLACEMENT_3D ( 'NONE', #89, #130, #91 ) ;
#61 = EDGE_CURVE ( 'NONE', #128, #128, #34, .T. ) ;
#62 = ORIENTED_EDGE ( 'NONE', *, *, #74, .T. ) ;
#63 = PRODUCT_DEFINITION_SHAPE ( 'NONE', 'NONE',  #55 ) ;
#64 = PERSON_AND_ORGANIZATION_ROLE ( 'creator' ) ;
#65 = DIRECTION ( 'NONE',  ( -3.491481338843133355E-15, 1.224646799147353207E-16, -1.000000000000000000 ) ) ;
#66 = DIRECTION ( 'NONE',  ( -3.491481338843133355E-15, 1.224646799147353207E-16, -1.000000000000000000 ) ) ;
#67 = CARTESIAN_POINT ( 'NONE',  ( 5.237222008264692144E-16, -1.897353801849635225E-17, 0.1499999999999997724 ) ) ;
#68 = ORIENTED_EDGE ( 'NONE', *, *, #193, .T. ) ;
#69 = DIRECTION ( 'NONE',  ( 1.000000000000000000, 0.0000000000000000000, -3.491481338843132961E-15 ) ) ;
#70 =( GEOMETRIC_REPRESENTATION_CONTEXT ( 3 ) GLOBAL_UNCERTAINTY_ASSIGNED_CONTEXT ( ( #37 ) ) GLOBAL_UNIT_ASSIGNED_CONTEXT ( ( #73, #150, #19 ) ) REPRESENTATION_CONTEXT ( 'NONE', 'WORKASPACE' ) );
#71 = VERTEX_POINT ( 'NONE', #53 ) ;
#72 = CARTESIAN_POINT ( 'NONE',  ( 1.326762908760390423E-13, -4.653657836759941941E-15, 38.00000000000000000 ) ) ;
#73 =( LENGTH_UNIT ( ) NAMED_UNIT ( * ) SI_UNIT ( .MILLI., .METRE. ) );
#74 = EDGE_CURVE ( 'NONE', #154, #154, #79, .T. ) ;
#75 = PERSON_AND_ORGANIZATION ( #120, #93 ) ;
#76 = CIRCLE ( 'NONE', #25, 0.07499999999999998335 ) ;
#77 = DATE_TIME_ROLE ( 'creation_date' ) ;
#78 = DATE_AND_TIME ( #141, #210 ) ;
#79 = CIRCLE ( 'NONE', #240, 0.07499999999999998335 ) ;
#80 = SHAPE_DEFINITION_REPRESENTATION ( #63, #220 ) ;
#81 = CC_DESIGN_DATE_AND_TIME_ASSIGNMENT ( #140, #135, ( #111 ) ) ;
#82 = DIRECTION ( 'NONE',  ( 1.000000000000000000, 0.0000000000000000000, -3.614007241618349165E-15 ) ) ;
#83 = CLOSED_SHELL ( 'NONE', ( #214, #134, #198, #138, #149, #9 ) ) ;
#84 = EDGE_LOOP ( 'NONE', ( #168 ) ) ;
#85 = CC_DESIGN_SECURITY_CLASSIFICATION ( #111, ( #196 ) ) ;
#86 = ORIENTED_EDGE ( 'NONE', *, *, #191, .T. ) ;
#87 = ORIENTED_EDGE ( 'NONE', *, *, #61, .F. ) ;
#88 = FACE_OUTER_BOUND ( 'NONE', #205, .T. ) ;
#89 = CARTESIAN_POINT ( 'NONE',  ( 5.237222008264692144E-16, -1.897353801849635225E-17, 0.1499999999999997724 ) ) ;
#90 = VERTEX_POINT ( 'NONE', #2 ) ;
#91 = DIRECTION ( 'NONE',  ( -4.275831445896958607E-31, -1.000000000000000000, -1.224646799147353207E-16 ) ) ;
#92 = PERSON_AND_ORGANIZATION ( #120, #93 ) ;
#93 = ORGANIZATION ( 'UNSPECIFIED', 'UNSPECIFIED', '' ) ;
#94 = APPROVAL_DATE_TIME ( #114, #186 ) ;
#95 = APPROVAL_ROLE ( '' ) ;
#96 = PRODUCT ( '64355', '64355', '', ( #179 ) ) ;
#97 = EDGE_LOOP ( 'NONE', ( #221 ) ) ;
#98 = PERSON_AND_ORGANIZATION_ROLE ( 'design_owner' ) ;
#99 = FACE_OUTER_BOUND ( 'NONE', #183, .T. ) ;
#100 = DIRECTION ( 'NONE',  ( 1.000000000000000000, 0.0000000000000000000, -3.491481338843132961E-15 ) ) ;
#101 = APPROVAL_PERSON_ORGANIZATION ( #21, #153, #232 ) ;
#102 = CC_DESIGN_PERSON_AND_ORGANIZATION_ASSIGNMENT ( #75, #6, ( #196 ) ) ;
#103 = EDGE_LOOP ( 'NONE', ( #68 ) ) ;
#104 = ORIENTED_EDGE ( 'NONE', *, *, #126, .F. ) ;
#105 = MANIFOLD_SOLID_BREP ( 'Corps-Déplacer/Copier1[1]', #83 ) ;
#106 = EDGE_LOOP ( 'NONE', ( #222 ) ) ;
#107 = AXIS2_PLACEMENT_3D ( 'NONE', #207, #203, #239 ) ;
#108 = DIRECTION ( 'NONE',  ( 1.000000000000000000, 0.0000000000000000000, -3.614007241618349165E-15 ) ) ;
#109 = DIRECTION ( 'NONE',  ( -3.491481338843133355E-15, 1.224646799147353207E-16, -1.000000000000000000 ) ) ;
#110 = MANIFOLD_SOLID_BREP ( 'Corps-Déplacer/Copier1[2]', #200 ) ;
#111 = SECURITY_CLASSIFICATION ( '', '', #231 ) ;
#112 = VERTEX_POINT ( 'NONE', #173 ) ;
#113 = DIRECTION ( 'NONE',  ( 0.0000000000000000000, 0.0000000000000000000, 1.000000000000000000 ) ) ;
#114 = DATE_AND_TIME ( #199, #125 ) ;
#115 = CONICAL_SURFACE ( 'NONE', #172, 1.499999999999996225, 0.2617993877991428020 ) ;
#116 = CC_DESIGN_APPROVAL ( #186, ( #111 ) ) ;
#117 = APPROVAL_STATUS ( 'not_yet_approved' ) ;
#118 = APPROVAL_DATE_TIME ( #41, #160 ) ;
#119 = AXIS2_PLACEMENT_3D ( 'NONE', #72, #56, #17 ) ;
#120 = PERSON ( 'UNSPECIFIED', 'UNSPECIFIED', 'UNSPECIFIED', ('UNSPECIFIED'), ('UNSPECIFIED'), ('UNSPECIFIED') ) ;
#121 = EDGE_LOOP ( 'NONE', ( #104 ) ) ;
#122 = PLANE ( 'NONE',  #224 ) ;
#123 = FACE_BOUND ( 'NONE', #103, .T. ) ;
#124 = LOCAL_TIME ( 8, 14, 17.00000000000000000, #136 ) ;
#125 = LOCAL_TIME ( 8, 14, 17.00000000000000000, #217 ) ;
#126 = EDGE_CURVE ( 'NONE', #90, #90, #178, .T. ) ;
#127 = CYLINDRICAL_SURFACE ( 'NONE', #107, 0.07499999999999998335 ) ;
#128 = VERTEX_POINT ( 'NONE', #190 ) ;
#129 = DIRECTION ( 'NONE',  ( 3.491481338843133355E-15, -0.0000000000000000000, 1.000000000000000000 ) ) ;
#130 = DIRECTION ( 'NONE',  ( 3.491481338843133355E-15, -1.224646799147353207E-16, 1.000000000000000000 ) ) ;
#131 = AXIS2_PLACEMENT_3D ( 'NONE', #230, #16, #69 ) ;
#132 = FACE_OUTER_BOUND ( 'NONE', #84, .T. ) ;
#133 = APPLICATION_PROTOCOL_DEFINITION ( 'international standard', 'config_control_design', 1994, #159 ) ;
#134 = ADVANCED_FACE ( 'NONE', ( #182, #123 ), #209, .T. ) ;
#135 = DATE_TIME_ROLE ( 'classification_date' ) ;
#136 = COORDINATED_UNIVERSAL_TIME_OFFSET ( 1, 0, .AHEAD. ) ;
#137 = EDGE_LOOP ( 'NONE', ( #206 ) ) ;
#138 = ADVANCED_FACE ( 'NONE', ( #223, #50 ), #213, .F. ) ;
#139 = LOCAL_TIME ( 8, 14, 17.00000000000000000, #23 ) ;
#140 = DATE_AND_TIME ( #157, #139 ) ;
#141 = CALENDAR_DATE ( 2021, 10, 11 ) ;
#142 = AXIS2_PLACEMENT_3D ( 'NONE', #27, #184, #51 ) ;
#143 = CC_DESIGN_APPROVAL ( #153, ( #55 ) ) ;
#144 = DIRECTION ( 'NONE',  ( -4.275831445896958607E-31, -1.000000000000000000, -1.224646799147353207E-16 ) ) ;
#145 = APPLICATION_CONTEXT ( 'configuration controlled 3d designs of mechanical parts and assemblies' ) ;
#146 = DIRECTION ( 'NONE',  ( 3.491481338843133355E-15, -1.224646799147353207E-16, 1.000000000000000000 ) ) ;
#147 = DIRECTION ( 'NONE',  ( 0.0000000000000000000, 1.000000000000000000, 0.0000000000000000000 ) ) ;
#148 = CARTESIAN_POINT ( 'NONE',  ( 2.001134637199753496E-14, 0.0000000000000000000, 5.731477395960561161 ) ) ;
#149 = ADVANCED_FACE ( 'NONE', ( #229, #54 ), #115, .T. ) ;
#150 =( NAMED_UNIT ( * ) PLANE_ANGLE_UNIT ( ) SI_UNIT ( $, .RADIAN. ) );
#151 = DIRECTION ( 'NONE',  ( 1.000000000000000000, 0.0000000000000000000, -3.469446951953622866E-15 ) ) ;
#152 = DIRECTION ( 'NONE',  ( 4.275831445896958607E-31, 1.000000000000000000, 1.224646799147353207E-16 ) ) ;
#153 = APPROVAL ( #216, 'UNSPECIFIED' ) ;
#154 = VERTEX_POINT ( 'NONE', #36 ) ;
#155 = DIRECTION ( 'NONE',  ( -3.491481338843133355E-15, 1.224646799147353207E-16, -1.000000000000000000 ) ) ;
#156 = PRODUCT_RELATED_PRODUCT_CATEGORY ( 'detail', '', ( #96 ) ) ;
#157 = CALENDAR_DATE ( 2021, 10, 11 ) ;
#158 = APPROVAL_ROLE ( '' ) ;
#159 = APPLICATION_CONTEXT ( 'configuration controlled 3d designs of mechanical parts and assemblies' ) ;
#160 = APPROVAL ( #175, 'UNSPECIFIED' ) ;
#161 = AXIS2_PLACEMENT_3D ( 'NONE', #208, #155, #4 ) ;
#162 = ORIENTED_EDGE ( 'NONE', *, *, #126, .T. ) ;
#163 = COORDINATED_UNIVERSAL_TIME_OFFSET ( 1, 0, .AHEAD. ) ;
#164 = EDGE_LOOP ( 'NONE', ( #87 ) ) ;
#165 = AXIS2_PLACEMENT_3D ( 'NONE', #237, #65, #167 ) ;
#166 = EDGE_LOOP ( 'NONE', ( #46 ) ) ;
#167 = DIRECTION ( 'NONE',  ( 0.0000000000000000000, 1.000000000000000000, 0.0000000000000000000 ) ) ;
#168 = ORIENTED_EDGE ( 'NONE', *, *, #28, .T. ) ;
#169 = CIRCLE ( 'NONE', #119, 1.199999999999998845 ) ;
#170 = DIRECTION ( 'NONE',  ( -4.275831445896958607E-31, -1.000000000000000000, -1.224646799147353207E-16 ) ) ;
#171 = VERTEX_POINT ( 'NONE', #188 ) ;
#172 = AXIS2_PLACEMENT_3D ( 'NONE', #212, #1, #151 ) ;
#173 = CARTESIAN_POINT ( 'NONE',  ( 0.1431483474218623320, 0.0000000000000000000, 0.6676380902050276234 ) ) ;
#174 = CC_DESIGN_PERSON_AND_ORGANIZATION_ASSIGNMENT ( #195, #64, ( #196 ) ) ;
#175 = APPROVAL_STATUS ( 'not_yet_approved' ) ;
#176 = CC_DESIGN_DATE_AND_TIME_ASSIGNMENT ( #78, #77, ( #55 ) ) ;
#177 = PERSON_AND_ORGANIZATION ( #120, #93 ) ;
#178 = CIRCLE ( 'NONE', #194, 0.07499999999999998335 ) ;
#179 = MECHANICAL_CONTEXT ( 'NONE', #145, 'mechanical' ) ;
#180 = ADVANCED_FACE ( 'NONE', ( #88 ), #39, .T. ) ;
#181 = CARTESIAN_POINT ( 'NONE',  ( 5.237222008264674395E-16, 0.0000000000000000000, 0.1499999999999992450 ) ) ;
#182 = FACE_OUTER_BOUND ( 'NONE', #13, .T. ) ;
#183 = EDGE_LOOP ( 'NONE', ( #162 ) ) ;
#184 = DIRECTION ( 'NONE',  ( 3.491481338843133355E-15, -0.0000000000000000000, 1.000000000000000000 ) ) ;
#185 = FACE_OUTER_BOUND ( 'NONE', #137, .T. ) ;
#186 = APPROVAL ( #117, 'UNSPECIFIED' ) ;
#187 = CYLINDRICAL_SURFACE ( 'NONE', #11, 1.499999999999996225 ) ;
#188 = CARTESIAN_POINT ( 'NONE',  ( 1.316288464743861212E-13, 1.499999999999994005, 37.69999999999999574 ) ) ;
#189 = DESIGN_CONTEXT ( 'detailed design', #159, 'design' ) ;
#190 = CARTESIAN_POINT ( 'NONE',  ( 1.500000000000015987, 0.0000000000000000000, 5.731477395960555832 ) ) ;
#191 = EDGE_CURVE ( 'NONE', #35, #35, #76, .T. ) ;
#192 = CARTESIAN_POINT ( 'NONE',  ( 0.07500000000000051070, 0.0000000000000000000, 0.1499999999999989952 ) ) ;
#193 = EDGE_CURVE ( 'NONE', #71, #71, #169, .T. ) ;
#194 = AXIS2_PLACEMENT_3D ( 'NONE', #236, #29, #100 ) ;
#195 = PERSON_AND_ORGANIZATION ( #120, #93 ) ;
#196 = PRODUCT_DEFINITION_FORMATION_WITH_SPECIFIED_SOURCE ( 'ANY', '', #96, .NOT_KNOWN. ) ;
#197 = CC_DESIGN_APPROVAL ( #160, ( #196 ) ) ;
#198 = ADVANCED_FACE ( 'NONE', ( #185 ), #3, .F. ) ;
#199 = CALENDAR_DATE ( 2021, 10, 11 ) ;
#200 = CLOSED_SHELL ( 'NONE', ( #180, #18, #238 ) ) ;
#201 = PERSON_AND_ORGANIZATION_ROLE ( 'classification_officer' ) ;
#202 = CC_DESIGN_PERSON_AND_ORGANIZATION_ASSIGNMENT ( #59, #44, ( #55 ) ) ;
#203 = DIRECTION ( 'NONE',  ( 3.491481338843133355E-15, -0.0000000000000000000, 1.000000000000000000 ) ) ;
#204 = DIRECTION ( 'NONE',  ( 1.000000000000000000, 0.0000000000000000000, -3.469446951953622866E-15 ) ) ;
#205 = EDGE_LOOP ( 'NONE', ( #86 ) ) ;
#206 = ORIENTED_EDGE ( 'NONE', *, *, #193, .F. ) ;
#207 = CARTESIAN_POINT ( 'NONE',  ( -1.786038389295302186E-30, 0.0000000000000000000, -5.115417256925931626E-16 ) ) ;
#208 = CARTESIAN_POINT ( 'NONE',  ( 1.326762908760390423E-13, 8.998558695971069014E-33, 38.00000000000000000 ) ) ;
#209 = CONICAL_SURFACE ( 'NONE', #52, 1.199999999999998845, 0.7853981633974450594 ) ;
#210 = LOCAL_TIME ( 8, 14, 17.00000000000000000, #219 ) ;
#211 = CARTESIAN_POINT ( 'NONE',  ( 0.0000000000000000000, 0.0000000000000000000, 0.0000000000000000000 ) ) ;
#212 = CARTESIAN_POINT ( 'NONE',  ( 2.001134637199753496E-14, 0.0000000000000000000, 5.731477395960561161 ) ) ;
#213 = TOROIDAL_SURFACE ( 'NONE', #131, 2.075000000000000178, 2.000000000000000000 ) ;
#214 = ADVANCED_FACE ( 'NONE', ( #132, #226 ), #187, .T. ) ;
#215 = PLANE ( 'NONE',  #43 ) ;
#216 = APPROVAL_STATUS ( 'not_yet_approved' ) ;
#217 = COORDINATED_UNIVERSAL_TIME_OFFSET ( 1, 0, .AHEAD. ) ;
#218 = CALENDAR_DATE ( 2021, 10, 11 ) ;
#219 = COORDINATED_UNIVERSAL_TIME_OFFSET ( 1, 0, .AHEAD. ) ;
#220 = ADVANCED_BREP_SHAPE_REPRESENTATION ( '64355', ( #105, #110, #22 ), #70 ) ;
#221 = ORIENTED_EDGE ( 'NONE', *, *, #40, .T. ) ;
#222 = ORIENTED_EDGE ( 'NONE', *, *, #191, .F. ) ;
#223 = FACE_OUTER_BOUND ( 'NONE', #234, .T. ) ;
#224 = AXIS2_PLACEMENT_3D ( 'NONE', #67, #146, #144 ) ;
#225 = DIRECTION ( 'NONE',  ( 3.491481338843133355E-15, -0.0000000000000000000, 1.000000000000000000 ) ) ;
#226 = FACE_OUTER_BOUND ( 'NONE', #241, .T. ) ;
#227 = CARTESIAN_POINT ( 'NONE',  ( 5.237222008264674395E-16, 0.0000000000000000000, 0.1499999999999992450 ) ) ;
#228 = FACE_OUTER_BOUND ( 'NONE', #121, .T. ) ;
#229 = FACE_BOUND ( 'NONE', #97, .T. ) ;
#230 = CARTESIAN_POINT ( 'NONE',  ( 5.237222008264683270E-16, 0.0000000000000000000, 0.1499999999999995226 ) ) ;
#231 = SECURITY_CLASSIFICATION_LEVEL ( 'unclassified' ) ;
#232 = APPROVAL_ROLE ( '' ) ;
#233 = APPROVAL_PERSON_ORGANIZATION ( #24, #160, #158 ) ;
#234 = EDGE_LOOP ( 'NONE', ( #62 ) ) ;
#235 = APPROVAL_DATE_TIME ( #26, #153 ) ;
#236 = CARTESIAN_POINT ( 'NONE',  ( 0.0000000000000000000, 0.0000000000000000000, 0.0000000000000000000 ) ) ;
#237 = CARTESIAN_POINT ( 'NONE',  ( 1.316288464743861212E-13, -4.616918432785521081E-15, 37.69999999999999574 ) ) ;
#238 = ADVANCED_FACE ( 'NONE', ( #228 ), #215, .F. ) ;
#239 = DIRECTION ( 'NONE',  ( 1.000000000000000000, 0.0000000000000000000, -3.491481338843133355E-15 ) ) ;
#240 = AXIS2_PLACEMENT_3D ( 'NONE', #181, #225, #82 ) ;
#241 = EDGE_LOOP ( 'NONE', ( #33 ) ) ;
#242 = CC_DESIGN_PERSON_AND_ORGANIZATION_ASSIGNMENT ( #177, #98, ( #96 ) ) ;
#243 = APPROVAL_PERSON_ORGANIZATION ( #8, #186, #95 ) ;
ENDSEC;
END-ISO-10303-21;
