ISO-10303-21;
HEADER;
FILE_DESCRIPTION (( 'STEP AP203' ),
    '1' );
FILE_NAME ('64354.step',
    '2021-11-10T07:14:16',
    ( '' ),
    ( '' ),
    'SwSTEP 2.0',
    'SolidWorks 2019',
    '' );
FILE_SCHEMA (( 'CONFIG_CONTROL_DESIGN' ));
ENDSEC;

DATA;
#1 = CARTESIAN_POINT ( 'NONE',  ( 3.491481338843116099E-16, 0.0000000000000000000, 0.09999999999999950595 ) ) ;
#2 = FACE_OUTER_BOUND ( 'NONE', #138, .T. ) ;
#3 = PERSON_AND_ORGANIZATION_ROLE ( 'classification_officer' ) ;
#4 = APPROVAL_PERSON_ORGANIZATION ( #187, #80, #172 ) ;
#5 = ORIENTED_EDGE ( 'NONE', *, *, #185, .F. ) ;
#6 = DIRECTION ( 'NONE',  ( 1.000000000000000000, 0.0000000000000000000, -3.491481338843133750E-15 ) ) ;
#7 = APPROVAL_STATUS ( 'not_yet_approved' ) ;
#8 = PERSON ( 'UNSPECIFIED', 'UNSPECIFIED', 'UNSPECIFIED', ('UNSPECIFIED'), ('UNSPECIFIED'), ('UNSPECIFIED') ) ;
#9 = ADVANCED_FACE ( 'NONE', ( #2 ), #63, .F. ) ;
#10 = CLOSED_SHELL ( 'NONE', ( #234, #104, #212, #60, #44, #9 ) ) ;
#11 =( NAMED_UNIT ( * ) PLANE_ANGLE_UNIT ( ) SI_UNIT ( $, .RADIAN. ) );
#12 = DIRECTION ( 'NONE',  ( 1.000000000000000000, 0.0000000000000000000, -3.491481338843132566E-15 ) ) ;
#13 = FACE_OUTER_BOUND ( 'NONE', #48, .T. ) ;
#14 = VERTEX_POINT ( 'NONE', #198 ) ;
#15 = CALENDAR_DATE ( 2021, 10, 11 ) ;
#16 = DIRECTION ( 'NONE',  ( 1.000000000000000000, 0.0000000000000000000, 0.0000000000000000000 ) ) ;
#17 = AXIS2_PLACEMENT_3D ( 'NONE', #240, #25, #106 ) ;
#18 = CARTESIAN_POINT ( 'NONE',  ( 2.016253194881141649E-14, 0.0000000000000000000, 5.774778666149785522 ) ) ;
#19 = MANIFOLD_SOLID_BREP ( 'Corps-Déplacer/Copier1[2]', #130 ) ;
#20 = DIRECTION ( 'NONE',  ( 1.000000000000000000, 0.0000000000000000000, -3.491481338843133355E-15 ) ) ;
#21 = DATE_TIME_ROLE ( 'classification_date' ) ;
#22 = DIRECTION ( 'NONE',  ( 3.491481338843133355E-15, -0.0000000000000000000, 1.000000000000000000 ) ) ;
#23 = DIRECTION ( 'NONE',  ( 3.491481338843133355E-15, -0.0000000000000000000, 1.000000000000000000 ) ) ;
#24 = DIRECTION ( 'NONE',  ( 1.000000000000000000, 0.0000000000000000000, -3.469446951953622866E-15 ) ) ;
#25 = DIRECTION ( 'NONE',  ( 3.491481338843133355E-15, -0.0000000000000000000, 1.000000000000000000 ) ) ;
#26 = EDGE_CURVE ( 'NONE', #180, #180, #117, .T. ) ;
#27 = CARTESIAN_POINT ( 'NONE',  ( 1.326762908760390423E-13, 1.199999999999994182, 38.00000000000000000 ) ) ;
#28 = PRODUCT_RELATED_PRODUCT_CATEGORY ( 'detail', '', ( #74 ) ) ;
#29 = DESIGN_CONTEXT ( 'detailed design', #148, 'design' ) ;
#30 = AXIS2_PLACEMENT_3D ( 'NONE', #1, #194, #6 ) ;
#31 = PLANE ( 'NONE',  #156 ) ;
#32 = LOCAL_TIME ( 8, 14, 16.00000000000000000, #149 ) ;
#33 = CYLINDRICAL_SURFACE ( 'NONE', #47, 1.499999999999996225 ) ;
#34 = DIRECTION ( 'NONE',  ( 3.491481338843133355E-15, -1.224646799147353207E-16, 1.000000000000000000 ) ) ;
#35 = DATE_AND_TIME ( #129, #32 ) ;
#36 = AXIS2_PLACEMENT_3D ( 'NONE', #229, #46, #24 ) ;
#37 = DATE_AND_TIME ( #15, #224 ) ;
#38 = CC_DESIGN_PERSON_AND_ORGANIZATION_ASSIGNMENT ( #49, #124, ( #189 ) ) ;
#39 = APPROVAL_ROLE ( '' ) ;
#40 = PERSON_AND_ORGANIZATION ( #8, #82 ) ;
#41 = DIRECTION ( 'NONE',  ( -4.275831445896958607E-31, -1.000000000000000000, -1.224646799147353207E-16 ) ) ;
#42 = CALENDAR_DATE ( 2021, 10, 11 ) ;
#43 = CARTESIAN_POINT ( 'NONE',  ( 0.0000000000000000000, 0.0000000000000000000, 0.0000000000000000000 ) ) ;
#44 = ADVANCED_FACE ( 'NONE', ( #62, #216 ), #115, .T. ) ;
#45 = DIRECTION ( 'NONE',  ( -3.491481338843133355E-15, 1.224646799147353207E-16, -1.000000000000000000 ) ) ;
#46 = DIRECTION ( 'NONE',  ( 3.491481338843133355E-15, -0.0000000000000000000, 1.000000000000000000 ) ) ;
#47 = AXIS2_PLACEMENT_3D ( 'NONE', #88, #103, #241 ) ;
#48 = EDGE_LOOP ( 'NONE', ( #155 ) ) ;
#49 = PERSON_AND_ORGANIZATION ( #8, #82 ) ;
#50 = DIRECTION ( 'NONE',  ( 3.491481338843133355E-15, -1.224646799147353207E-16, 1.000000000000000000 ) ) ;
#51 = TOROIDAL_SURFACE ( 'NONE', #30, 2.050000000000000266, 2.000000000000000000 ) ;
#52 = FACE_OUTER_BOUND ( 'NONE', #176, .T. ) ;
#53 = EDGE_CURVE ( 'NONE', #225, #225, #175, .T. ) ;
#54 = VERTEX_POINT ( 'NONE', #67 ) ;
#55 = CARTESIAN_POINT ( 'NONE',  ( 1.326762908760390423E-13, -4.653657836759941941E-15, 38.00000000000000000 ) ) ;
#56 = EDGE_CURVE ( 'NONE', #54, #54, #205, .T. ) ;
#57 = CALENDAR_DATE ( 2021, 10, 11 ) ;
#58 = APPLICATION_CONTEXT ( 'configuration controlled 3d designs of mechanical parts and assemblies' ) ;
#59 = AXIS2_PLACEMENT_3D ( 'NONE', #102, #145, #125 ) ;
#60 = ADVANCED_FACE ( 'NONE', ( #178, #95 ), #51, .F. ) ;
#61 = DIRECTION ( 'NONE',  ( -3.491481338843133355E-15, 1.224646799147353207E-16, -1.000000000000000000 ) ) ;
#62 = FACE_BOUND ( 'NONE', #213, .T. ) ;
#63 = PLANE ( 'NONE',  #204 ) ;
#64 = DIRECTION ( 'NONE',  ( 1.000000000000000000, 0.0000000000000000000, -3.469446951953622866E-15 ) ) ;
#65 = ORIENTED_EDGE ( 'NONE', *, *, #69, .T. ) ;
#66 = AXIS2_PLACEMENT_3D ( 'NONE', #186, #76, #16 ) ;
#67 = CARTESIAN_POINT ( 'NONE',  ( 1.316288464743861212E-13, 1.499999999999994005, 37.69999999999999574 ) ) ;
#68 = DIRECTION ( 'NONE',  ( -4.275831445896958607E-31, -1.000000000000000000, -1.224646799147353207E-16 ) ) ;
#69 = EDGE_CURVE ( 'NONE', #128, #128, #170, .T. ) ;
#70 = LOCAL_TIME ( 8, 14, 16.00000000000000000, #86 ) ;
#71 = CARTESIAN_POINT ( 'NONE',  ( 0.1181483474218623098, 0.0000000000000000000, 0.6176380902050276900 ) ) ;
#72 = CARTESIAN_POINT ( 'NONE',  ( 1.500000000000016209, 0.0000000000000000000, 5.774778666149781081 ) ) ;
#73 = APPROVAL_STATUS ( 'not_yet_approved' ) ;
#74 = PRODUCT ( '64354', '64354', '', ( #132 ) ) ;
#75 = CC_DESIGN_PERSON_AND_ORGANIZATION_ASSIGNMENT ( #166, #3, ( #171 ) ) ;
#76 = DIRECTION ( 'NONE',  ( 0.0000000000000000000, 0.0000000000000000000, 1.000000000000000000 ) ) ;
#77 = CC_DESIGN_DATE_AND_TIME_ASSIGNMENT ( #133, #113, ( #168 ) ) ;
#78 =( GEOMETRIC_REPRESENTATION_CONTEXT ( 3 ) GLOBAL_UNCERTAINTY_ASSIGNED_CONTEXT ( ( #123 ) ) GLOBAL_UNIT_ASSIGNED_CONTEXT ( ( #179, #11, #121 ) ) REPRESENTATION_CONTEXT ( 'NONE', 'WORKASPACE' ) );
#79 = CARTESIAN_POINT ( 'NONE',  ( 1.326762908760390423E-13, -4.653657836759941941E-15, 38.00000000000000000 ) ) ;
#80 = APPROVAL ( #92, 'UNSPECIFIED' ) ;
#81 = ORIENTED_EDGE ( 'NONE', *, *, #69, .F. ) ;
#82 = ORGANIZATION ( 'UNSPECIFIED', 'UNSPECIFIED', '' ) ;
#83 = ORIENTED_EDGE ( 'NONE', *, *, #94, .F. ) ;
#84 = ORIENTED_EDGE ( 'NONE', *, *, #53, .F. ) ;
#85 = FACE_OUTER_BOUND ( 'NONE', #118, .T. ) ;
#86 = COORDINATED_UNIVERSAL_TIME_OFFSET ( 1, 0, .AHEAD. ) ;
#87 = CARTESIAN_POINT ( 'NONE',  ( -1.786038389295302186E-30, 0.0000000000000000000, -5.115417256925931626E-16 ) ) ;
#88 = CARTESIAN_POINT ( 'NONE',  ( 0.0000000000000000000, 0.0000000000000000000, 0.0000000000000000000 ) ) ;
#89 = AXIS2_PLACEMENT_3D ( 'NONE', #146, #127, #242 ) ;
#90 = PERSON_AND_ORGANIZATION_ROLE ( 'creator' ) ;
#91 = COORDINATED_UNIVERSAL_TIME_OFFSET ( 1, 0, .AHEAD. ) ;
#92 = APPROVAL_STATUS ( 'not_yet_approved' ) ;
#93 = AXIS2_PLACEMENT_3D ( 'NONE', #87, #142, #12 ) ;
#94 = EDGE_CURVE ( 'NONE', #165, #165, #236, .T. ) ;
#95 = FACE_OUTER_BOUND ( 'NONE', #101, .T. ) ;
#96 = ADVANCED_FACE ( 'NONE', ( #177, #85 ), #109, .T. ) ;
#97 = COORDINATED_UNIVERSAL_TIME_OFFSET ( 1, 0, .AHEAD. ) ;
#98 = ORIENTED_EDGE ( 'NONE', *, *, #26, .F. ) ;
#99 = EDGE_LOOP ( 'NONE', ( #153 ) ) ;
#100 = DIRECTION ( 'NONE',  ( 0.0000000000000000000, 1.000000000000000000, 0.0000000000000000000 ) ) ;
#101 = EDGE_LOOP ( 'NONE', ( #98 ) ) ;
#102 = CARTESIAN_POINT ( 'NONE',  ( 3.491481338843108210E-16, 0.0000000000000000000, 0.09999999999999928391 ) ) ;
#103 = DIRECTION ( 'NONE',  ( -3.491481338843133355E-15, 1.224646799147353207E-16, -1.000000000000000000 ) ) ;
#104 = ADVANCED_FACE ( 'NONE', ( #221, #237 ), #120, .T. ) ;
#105 = APPROVAL_PERSON_ORGANIZATION ( #110, #122, #39 ) ;
#106 = DIRECTION ( 'NONE',  ( 1.000000000000000000, 0.0000000000000000000, -3.523657060577880339E-15 ) ) ;
#107 = CARTESIAN_POINT ( 'NONE',  ( -6.413803915257457113E-31, 2.249659577954772199E-32, -1.836986451539393076E-16 ) ) ;
#108 = SECURITY_CLASSIFICATION_LEVEL ( 'unclassified' ) ;
#109 = CYLINDRICAL_SURFACE ( 'NONE', #93, 0.05000000000000002359 ) ;
#110 = PERSON_AND_ORGANIZATION ( #8, #82 ) ;
#111 = ADVANCED_BREP_SHAPE_REPRESENTATION ( '64354', ( #114, #19, #66 ), #78 ) ;
#112 = SHAPE_DEFINITION_REPRESENTATION ( #209, #111 ) ;
#113 = DATE_TIME_ROLE ( 'creation_date' ) ;
#114 = MANIFOLD_SOLID_BREP ( 'Corps-Déplacer/Copier1[1]', #10 ) ;
#115 = CONICAL_SURFACE ( 'NONE', #36, 1.499999999999996225, 0.2617993877991427465 ) ;
#116 = CARTESIAN_POINT ( 'NONE',  ( 2.156471866109567744E-15, 0.0000000000000000000, 0.6176380902050281341 ) ) ;
#117 = CIRCLE ( 'NONE', #150, 0.1181483474218601587 ) ;
#118 = EDGE_LOOP ( 'NONE', ( #5 ) ) ;
#119 = ORIENTED_EDGE ( 'NONE', *, *, #94, .T. ) ;
#120 = CONICAL_SURFACE ( 'NONE', #230, 1.199999999999998845, 0.7853981633974450594 ) ;
#121 =( NAMED_UNIT ( * ) SI_UNIT ( $, .STERADIAN. ) SOLID_ANGLE_UNIT ( ) );
#122 = APPROVAL ( #73, 'UNSPECIFIED' ) ;
#123 = UNCERTAINTY_MEASURE_WITH_UNIT (LENGTH_MEASURE( 1.000000000000000082E-05 ), #179, 'distance_accuracy_value', 'NONE');
#124 = PERSON_AND_ORGANIZATION_ROLE ( 'creator' ) ;
#125 = DIRECTION ( 'NONE',  ( 1.000000000000000000, 0.0000000000000000000, -3.523657060577880339E-15 ) ) ;
#126 = CIRCLE ( 'NONE', #17, 0.05000000000000012768 ) ;
#127 = DIRECTION ( 'NONE',  ( -3.491481338843133355E-15, 1.224646799147353207E-16, -1.000000000000000000 ) ) ;
#128 = VERTEX_POINT ( 'NONE', #202 ) ;
#129 = CALENDAR_DATE ( 2021, 10, 11 ) ;
#130 = CLOSED_SHELL ( 'NONE', ( #141, #96, #210 ) ) ;
#131 = LOCAL_TIME ( 8, 14, 16.00000000000000000, #227 ) ;
#132 = MECHANICAL_CONTEXT ( 'NONE', #58, 'mechanical' ) ;
#133 = DATE_AND_TIME ( #57, #131 ) ;
#134 = CIRCLE ( 'NONE', #59, 0.05000000000000012768 ) ;
#135 = EDGE_LOOP ( 'NONE', ( #83 ) ) ;
#136 = CARTESIAN_POINT ( 'NONE',  ( 1.316288464743861212E-13, -4.616918432785521081E-15, 37.69999999999999574 ) ) ;
#137 = CC_DESIGN_APPROVAL ( #122, ( #168 ) ) ;
#138 = EDGE_LOOP ( 'NONE', ( #196 ) ) ;
#139 = ORIENTED_EDGE ( 'NONE', *, *, #190, .T. ) ;
#140 = EDGE_LOOP ( 'NONE', ( #139 ) ) ;
#141 = ADVANCED_FACE ( 'NONE', ( #161 ), #162, .T. ) ;
#142 = DIRECTION ( 'NONE',  ( 3.491481338843133355E-15, -0.0000000000000000000, 1.000000000000000000 ) ) ;
#143 = PERSON_AND_ORGANIZATION ( #8, #82 ) ;
#144 = APPROVAL_DATE_TIME ( #35, #80 ) ;
#145 = DIRECTION ( 'NONE',  ( 3.491481338843133355E-15, -0.0000000000000000000, 1.000000000000000000 ) ) ;
#146 = CARTESIAN_POINT ( 'NONE',  ( 1.326762908760390423E-13, 8.998558695971069014E-33, 38.00000000000000000 ) ) ;
#147 = VERTEX_POINT ( 'NONE', #183 ) ;
#148 = APPLICATION_CONTEXT ( 'configuration controlled 3d designs of mechanical parts and assemblies' ) ;
#149 = COORDINATED_UNIVERSAL_TIME_OFFSET ( 1, 0, .AHEAD. ) ;
#150 = AXIS2_PLACEMENT_3D ( 'NONE', #116, #174, #154 ) ;
#151 = CC_DESIGN_PERSON_AND_ORGANIZATION_ASSIGNMENT ( #243, #90, ( #168 ) ) ;
#152 = CC_DESIGN_DATE_AND_TIME_ASSIGNMENT ( #193, #21, ( #171 ) ) ;
#153 = ORIENTED_EDGE ( 'NONE', *, *, #56, .F. ) ;
#154 = DIRECTION ( 'NONE',  ( 1.000000000000000000, 0.0000000000000000000, -3.670646932078551020E-15 ) ) ;
#155 = ORIENTED_EDGE ( 'NONE', *, *, #56, .T. ) ;
#156 = AXIS2_PLACEMENT_3D ( 'NONE', #107, #50, #181 ) ;
#157 = DIRECTION ( 'NONE',  ( 3.491481338843133355E-15, -1.224646799147353207E-16, 1.000000000000000000 ) ) ;
#158 = ORIENTED_EDGE ( 'NONE', *, *, #185, .T. ) ;
#159 = CALENDAR_DATE ( 2021, 10, 11 ) ;
#160 = DIRECTION ( 'NONE',  ( 0.0000000000000000000, 1.000000000000000000, 0.0000000000000000000 ) ) ;
#161 = FACE_OUTER_BOUND ( 'NONE', #233, .T. ) ;
#162 = PLANE ( 'NONE',  #188 ) ;
#163 = CC_DESIGN_PERSON_AND_ORGANIZATION_ASSIGNMENT ( #184, #206, ( #74 ) ) ;
#164 = AXIS2_PLACEMENT_3D ( 'NONE', #79, #61, #100 ) ;
#165 = VERTEX_POINT ( 'NONE', #27 ) ;
#166 = PERSON_AND_ORGANIZATION ( #8, #82 ) ;
#167 = APPLICATION_PROTOCOL_DEFINITION ( 'international standard', 'config_control_design', 1994, #148 ) ;
#168 = PRODUCT_DEFINITION ( 'UNKNOWN', '', #189, #29 ) ;
#169 = APPROVAL_DATE_TIME ( #37, #122 ) ;
#170 = CIRCLE ( 'NONE', #200, 0.04999999999999991257 ) ;
#171 = SECURITY_CLASSIFICATION ( '', '', #108 ) ;
#172 = APPROVAL_ROLE ( '' ) ;
#173 = CC_DESIGN_SECURITY_CLASSIFICATION ( #171, ( #189 ) ) ;
#174 = DIRECTION ( 'NONE',  ( 3.491481338843133355E-15, -0.0000000000000000000, 1.000000000000000000 ) ) ;
#175 = CIRCLE ( 'NONE', #218, 1.499999999999996225 ) ;
#176 = EDGE_LOOP ( 'NONE', ( #81 ) ) ;
#177 = FACE_OUTER_BOUND ( 'NONE', #235, .T. ) ;
#178 = FACE_OUTER_BOUND ( 'NONE', #140, .T. ) ;
#179 =( LENGTH_UNIT ( ) NAMED_UNIT ( * ) SI_UNIT ( .MILLI., .METRE. ) );
#180 = VERTEX_POINT ( 'NONE', #71 ) ;
#181 = DIRECTION ( 'NONE',  ( -4.275831445896958607E-31, -1.000000000000000000, -1.224646799147353207E-16 ) ) ;
#182 = FACE_OUTER_BOUND ( 'NONE', #135, .T. ) ;
#183 = CARTESIAN_POINT ( 'NONE',  ( 0.05000000000000048156, 0.0000000000000000000, 0.09999999999999910349 ) ) ;
#184 = PERSON_AND_ORGANIZATION ( #8, #82 ) ;
#185 = EDGE_CURVE ( 'NONE', #147, #147, #126, .T. ) ;
#186 = CARTESIAN_POINT ( 'NONE',  ( 0.0000000000000000000, 0.0000000000000000000, 0.0000000000000000000 ) ) ;
#187 = PERSON_AND_ORGANIZATION ( #8, #82 ) ;
#188 = AXIS2_PLACEMENT_3D ( 'NONE', #222, #34, #68 ) ;
#189 = PRODUCT_DEFINITION_FORMATION_WITH_SPECIFIED_SOURCE ( 'ANY', '', #74, .NOT_KNOWN. ) ;
#190 = EDGE_CURVE ( 'NONE', #14, #14, #134, .T. ) ;
#191 = APPROVAL ( #7, 'UNSPECIFIED' ) ;
#192 = EDGE_LOOP ( 'NONE', ( #119 ) ) ;
#193 = DATE_AND_TIME ( #42, #238 ) ;
#194 = DIRECTION ( 'NONE',  ( 3.491481338843133355E-15, -0.0000000000000000000, 1.000000000000000000 ) ) ;
#195 = EDGE_LOOP ( 'NONE', ( #228 ) ) ;
#196 = ORIENTED_EDGE ( 'NONE', *, *, #190, .F. ) ;
#197 = DIRECTION ( 'NONE',  ( -3.491481338843133355E-15, 1.224646799147353207E-16, -1.000000000000000000 ) ) ;
#198 = CARTESIAN_POINT ( 'NONE',  ( 0.05000000000000048156, 0.0000000000000000000, 0.09999999999999910349 ) ) ;
#199 = PLANE ( 'NONE',  #89 ) ;
#200 = AXIS2_PLACEMENT_3D ( 'NONE', #43, #23, #20 ) ;
#201 = FACE_OUTER_BOUND ( 'NONE', #195, .T. ) ;
#202 = CARTESIAN_POINT ( 'NONE',  ( 0.04999999999999991257, 0.0000000000000000000, -1.745740669421563719E-16 ) ) ;
#203 = DATE_AND_TIME ( #159, #70 ) ;
#204 = AXIS2_PLACEMENT_3D ( 'NONE', #217, #157, #41 ) ;
#205 = CIRCLE ( 'NONE', #223, 1.499999999999998446 ) ;
#206 = PERSON_AND_ORGANIZATION_ROLE ( 'design_owner' ) ;
#207 = APPROVAL_ROLE ( '' ) ;
#208 = APPLICATION_PROTOCOL_DEFINITION ( 'international standard', 'config_control_design', 1994, #58 ) ;
#209 = PRODUCT_DEFINITION_SHAPE ( 'NONE', 'NONE',  #168 ) ;
#210 = ADVANCED_FACE ( 'NONE', ( #52 ), #31, .F. ) ;
#211 = CC_DESIGN_APPROVAL ( #191, ( #171 ) ) ;
#212 = ADVANCED_FACE ( 'NONE', ( #182 ), #199, .F. ) ;
#213 = EDGE_LOOP ( 'NONE', ( #232 ) ) ;
#214 = CC_DESIGN_APPROVAL ( #80, ( #189 ) ) ;
#215 = DIRECTION ( 'NONE',  ( 0.0000000000000000000, 1.000000000000000000, 0.0000000000000000000 ) ) ;
#216 = FACE_OUTER_BOUND ( 'NONE', #219, .T. ) ;
#217 = CARTESIAN_POINT ( 'NONE',  ( 3.491481338843125960E-16, -1.445602896647340581E-17, 0.09999999999999978351 ) ) ;
#218 = AXIS2_PLACEMENT_3D ( 'NONE', #18, #22, #64 ) ;
#219 = EDGE_LOOP ( 'NONE', ( #84 ) ) ;
#220 = PERSON_AND_ORGANIZATION_ROLE ( 'design_supplier' ) ;
#221 = FACE_OUTER_BOUND ( 'NONE', #99, .T. ) ;
#222 = CARTESIAN_POINT ( 'NONE',  ( 3.491481338843125960E-16, -1.445602896647340581E-17, 0.09999999999999978351 ) ) ;
#223 = AXIS2_PLACEMENT_3D ( 'NONE', #136, #45, #215 ) ;
#224 = LOCAL_TIME ( 8, 14, 16.00000000000000000, #91 ) ;
#225 = VERTEX_POINT ( 'NONE', #72 ) ;
#226 = APPROVAL_DATE_TIME ( #203, #191 ) ;
#227 = COORDINATED_UNIVERSAL_TIME_OFFSET ( 1, 0, .AHEAD. ) ;
#228 = ORIENTED_EDGE ( 'NONE', *, *, #53, .T. ) ;
#229 = CARTESIAN_POINT ( 'NONE',  ( 2.016253194881141649E-14, 0.0000000000000000000, 5.774778666149785522 ) ) ;
#230 = AXIS2_PLACEMENT_3D ( 'NONE', #55, #197, #160 ) ;
#231 = APPROVAL_PERSON_ORGANIZATION ( #40, #191, #207 ) ;
#232 = ORIENTED_EDGE ( 'NONE', *, *, #26, .T. ) ;
#233 = EDGE_LOOP ( 'NONE', ( #158 ) ) ;
#234 = ADVANCED_FACE ( 'NONE', ( #13, #201 ), #33, .T. ) ;
#235 = EDGE_LOOP ( 'NONE', ( #65 ) ) ;
#236 = CIRCLE ( 'NONE', #164, 1.199999999999998845 ) ;
#237 = FACE_BOUND ( 'NONE', #192, .T. ) ;
#238 = LOCAL_TIME ( 8, 14, 16.00000000000000000, #97 ) ;
#239 = CC_DESIGN_PERSON_AND_ORGANIZATION_ASSIGNMENT ( #143, #220, ( #189 ) ) ;
#240 = CARTESIAN_POINT ( 'NONE',  ( 3.491481338843108210E-16, 0.0000000000000000000, 0.09999999999999928391 ) ) ;
#241 = DIRECTION ( 'NONE',  ( 4.275831445896958607E-31, 1.000000000000000000, 1.224646799147353207E-16 ) ) ;
#242 = DIRECTION ( 'NONE',  ( 4.275831445896958607E-31, 1.000000000000000000, 1.224646799147353207E-16 ) ) ;
#243 = PERSON_AND_ORGANIZATION ( #8, #82 ) ;
ENDSEC;
END-ISO-10303-21;
