ISO-10303-21;
HEADER;
FILE_DESCRIPTION (( 'STEP AP203' ),
    '1' );
FILE_NAME ('64255.step',
    '2021-11-10T07:14:16',
    ( '' ),
    ( '' ),
    'SwSTEP 2.0',
    'SolidWorks 2019',
    '' );
FILE_SCHEMA (( 'CONFIG_CONTROL_DESIGN' ));
ENDSEC;

DATA;
#1 = ORIENTED_EDGE ( 'NONE', *, *, #68, .T. ) ;
#2 = PERSON_AND_ORGANIZATION ( #16, #89 ) ;
#3 = EDGE_LOOP ( 'NONE', ( #21 ) ) ;
#4 = ORIENTED_EDGE ( 'NONE', *, *, #57, .T. ) ;
#5 = DATE_AND_TIME ( #37, #38 ) ;
#6 = DIRECTION ( 'NONE',  ( -3.491481338843133355E-15, 1.224646799147353207E-16, -1.000000000000000000 ) ) ;
#7 = ADVANCED_FACE ( 'NONE', ( #61 ), #190, .T. ) ;
#8 = AXIS2_PLACEMENT_3D ( 'NONE', #107, #27, #141 ) ;
#9 = DIRECTION ( 'NONE',  ( 3.491481338843133355E-15, -1.224646799147353207E-16, 1.000000000000000000 ) ) ;
#10 = APPROVAL ( #31, 'UNSPECIFIED' ) ;
#11 = DIRECTION ( 'NONE',  ( 3.491481338843133355E-15, -0.0000000000000000000, 1.000000000000000000 ) ) ;
#12 = CARTESIAN_POINT ( 'NONE',  ( 1.804593387341708142E-14, 0.0000000000000000000, 5.168560883500646241 ) ) ;
#13 = DIRECTION ( 'NONE',  ( 1.000000000000000000, 0.0000000000000000000, -3.523657060577891777E-15 ) ) ;
#14 = DIRECTION ( 'NONE',  ( 0.0000000000000000000, 0.0000000000000000000, 1.000000000000000000 ) ) ;
#15 =( NAMED_UNIT ( * ) SI_UNIT ( $, .STERADIAN. ) SOLID_ANGLE_UNIT ( ) );
#16 = PERSON ( 'UNSPECIFIED', 'UNSPECIFIED', 'UNSPECIFIED', ('UNSPECIFIED'), ('UNSPECIFIED'), ('UNSPECIFIED') ) ;
#17 = PERSON_AND_ORGANIZATION_ROLE ( 'design_owner' ) ;
#18 = CIRCLE ( 'NONE', #153, 0.3999999999999997446 ) ;
#19 = APPLICATION_CONTEXT ( 'configuration controlled 3d designs of mechanical parts and assemblies' ) ;
#20 = CARTESIAN_POINT ( 'NONE',  ( 1.316288464743861212E-13, -4.616918432785521081E-15, 37.69999999999999574 ) ) ;
#21 = ORIENTED_EDGE ( 'NONE', *, *, #53, .T. ) ;
#22 = DIRECTION ( 'NONE',  ( 4.275831445896958607E-31, 1.000000000000000000, 1.224646799147353207E-16 ) ) ;
#23 = AXIS2_PLACEMENT_3D ( 'NONE', #100, #186, #22 ) ;
#24 = FACE_OUTER_BOUND ( 'NONE', #3, .T. ) ;
#25 = PLANE ( 'NONE',  #65 ) ;
#26 = ADVANCED_FACE ( 'NONE', ( #118, #230 ), #209, .T. ) ;
#27 = DIRECTION ( 'NONE',  ( 3.491481338843133355E-15, -0.0000000000000000000, 1.000000000000000000 ) ) ;
#28 = VERTEX_POINT ( 'NONE', #157 ) ;
#29 = CARTESIAN_POINT ( 'NONE',  ( 2.793185071074504712E-15, 0.0000000000000000000, 0.7999999999999993783 ) ) ;
#30 = CARTESIAN_POINT ( 'NONE',  ( 2.793185071074506290E-15, -1.156482317317874683E-16, 0.7999999999999998224 ) ) ;
#31 = APPROVAL_STATUS ( 'not_yet_approved' ) ;
#32 = PERSON_AND_ORGANIZATION ( #16, #89 ) ;
#33 = AXIS2_PLACEMENT_3D ( 'NONE', #12, #101, #158 ) ;
#34 =( LENGTH_UNIT ( ) NAMED_UNIT ( * ) SI_UNIT ( .MILLI., .METRE. ) );
#35 = APPROVAL ( #96, 'UNSPECIFIED' ) ;
#36 = DIRECTION ( 'NONE',  ( 1.000000000000000000, 0.0000000000000000000, 0.0000000000000000000 ) ) ;
#37 = CALENDAR_DATE ( 2021, 10, 11 ) ;
#38 = LOCAL_TIME ( 8, 14, 16.00000000000000000, #188 ) ;
#39 = EDGE_LOOP ( 'NONE', ( #98 ) ) ;
#40 = APPROVAL_ROLE ( '' ) ;
#41 = LOCAL_TIME ( 8, 14, 16.00000000000000000, #48 ) ;
#42 = DIRECTION ( 'NONE',  ( -4.275831445896958607E-31, -1.000000000000000000, -1.224646799147353207E-16 ) ) ;
#43 = ADVANCED_FACE ( 'NONE', ( #24, #113 ), #152, .T. ) ;
#44 = EDGE_LOOP ( 'NONE', ( #99 ) ) ;
#45 = APPROVAL_PERSON_ORGANIZATION ( #32, #164, #220 ) ;
#46 = EDGE_LOOP ( 'NONE', ( #1 ) ) ;
#47 = VERTEX_POINT ( 'NONE', #145 ) ;
#48 = COORDINATED_UNIVERSAL_TIME_OFFSET ( 1, 0, .AHEAD. ) ;
#49 = CARTESIAN_POINT ( 'NONE',  ( 1.326762908760390423E-13, 8.998558695971069014E-33, 38.00000000000000000 ) ) ;
#50 = AXIS2_PLACEMENT_3D ( 'NONE', #29, #105, #102 ) ;
#51 = CARTESIAN_POINT ( 'NONE',  ( 0.4000000000000025757, 0.0000000000000000000, 0.7999999999999979350 ) ) ;
#52 = SECURITY_CLASSIFICATION ( '', '', #110 ) ;
#53 = EDGE_CURVE ( 'NONE', #47, #47, #127, .T. ) ;
#54 = DATE_AND_TIME ( #73, #171 ) ;
#55 = DIRECTION ( 'NONE',  ( -4.275831445896958607E-31, -1.000000000000000000, -1.224646799147353207E-16 ) ) ;
#56 = DIRECTION ( 'NONE',  ( 0.0000000000000000000, 1.000000000000000000, 0.0000000000000000000 ) ) ;
#57 = EDGE_CURVE ( 'NONE', #216, #216, #18, .T. ) ;
#58 = COORDINATED_UNIVERSAL_TIME_OFFSET ( 1, 0, .AHEAD. ) ;
#59 = ADVANCED_FACE ( 'NONE', ( #173 ), #176, .F. ) ;
#60 = EDGE_LOOP ( 'NONE', ( #76 ) ) ;
#61 = FACE_OUTER_BOUND ( 'NONE', #46, .T. ) ;
#62 = EDGE_LOOP ( 'NONE', ( #4 ) ) ;
#63 = AXIS2_PLACEMENT_3D ( 'NONE', #87, #6, #56 ) ;
#64 = DIRECTION ( 'NONE',  ( 0.0000000000000000000, 1.000000000000000000, 0.0000000000000000000 ) ) ;
#65 = AXIS2_PLACEMENT_3D ( 'NONE', #192, #9, #195 ) ;
#66 = CARTESIAN_POINT ( 'NONE',  ( 0.3999999999999999667, 0.0000000000000000000, -1.396592535537253342E-15 ) ) ;
#67 = FACE_OUTER_BOUND ( 'NONE', #81, .T. ) ;
#68 = EDGE_CURVE ( 'NONE', #210, #210, #223, .T. ) ;
#69 = DIRECTION ( 'NONE',  ( 1.000000000000000000, 0.0000000000000000000, -3.705499518539592111E-15 ) ) ;
#70 = CC_DESIGN_PERSON_AND_ORGANIZATION_ASSIGNMENT ( #116, #199, ( #52 ) ) ;
#71 = DATE_TIME_ROLE ( 'classification_date' ) ;
#72 = CARTESIAN_POINT ( 'NONE',  ( 1.326762908760390423E-13, -4.653657836759941941E-15, 38.00000000000000000 ) ) ;
#73 = CALENDAR_DATE ( 2021, 10, 11 ) ;
#74 = CC_DESIGN_PERSON_AND_ORGANIZATION_ASSIGNMENT ( #183, #17, ( #163 ) ) ;
#75 = CC_DESIGN_APPROVAL ( #164, ( #95 ) ) ;
#76 = ORIENTED_EDGE ( 'NONE', *, *, #185, .T. ) ;
#77 = CC_DESIGN_DATE_AND_TIME_ASSIGNMENT ( #106, #162, ( #95 ) ) ;
#78 = EDGE_LOOP ( 'NONE', ( #189 ) ) ;
#79 = PRODUCT_RELATED_PRODUCT_CATEGORY ( 'detail', '', ( #163 ) ) ;
#80 = EDGE_LOOP ( 'NONE', ( #169 ) ) ;
#81 = EDGE_LOOP ( 'NONE', ( #168 ) ) ;
#82 = ORIENTED_EDGE ( 'NONE', *, *, #229, .T. ) ;
#83 = DIRECTION ( 'NONE',  ( 4.275831445896958607E-31, 1.000000000000000000, 1.224646799147353207E-16 ) ) ;
#84 = PERSON_AND_ORGANIZATION ( #16, #89 ) ;
#85 = FACE_OUTER_BOUND ( 'NONE', #207, .T. ) ;
#86 = UNCERTAINTY_MEASURE_WITH_UNIT (LENGTH_MEASURE( 1.000000000000000082E-05 ), #34, 'distance_accuracy_value', 'NONE');
#87 = CARTESIAN_POINT ( 'NONE',  ( 1.326762908760390423E-13, -4.653657836759941941E-15, 38.00000000000000000 ) ) ;
#88 = DIRECTION ( 'NONE',  ( 1.000000000000000000, 0.0000000000000000000, -3.491481338843133750E-15 ) ) ;
#89 = ORGANIZATION ( 'UNSPECIFIED', 'UNSPECIFIED', '' ) ;
#90 = APPROVAL_DATE_TIME ( #201, #164 ) ;
#91 = AXIS2_PLACEMENT_3D ( 'NONE', #20, #205, #144 ) ;
#92 = CC_DESIGN_APPROVAL ( #10, ( #52 ) ) ;
#93 = ADVANCED_FACE ( 'NONE', ( #125, #85 ), #114, .T. ) ;
#94 =( GEOMETRIC_REPRESENTATION_CONTEXT ( 3 ) GLOBAL_UNCERTAINTY_ASSIGNED_CONTEXT ( ( #86 ) ) GLOBAL_UNIT_ASSIGNED_CONTEXT ( ( #34, #182, #15 ) ) REPRESENTATION_CONTEXT ( 'NONE', 'WORKASPACE' ) );
#95 = PRODUCT_DEFINITION ( 'UNKNOWN', '', #222, #142 ) ;
#96 = APPROVAL_STATUS ( 'not_yet_approved' ) ;
#97 = DIRECTION ( 'NONE',  ( 3.491481338843133355E-15, -1.224646799147353207E-16, 1.000000000000000000 ) ) ;
#98 = ORIENTED_EDGE ( 'NONE', *, *, #138, .T. ) ;
#99 = ORIENTED_EDGE ( 'NONE', *, *, #185, .F. ) ;
#100 = CARTESIAN_POINT ( 'NONE',  ( 0.0000000000000000000, 0.0000000000000000000, 0.0000000000000000000 ) ) ;
#101 = DIRECTION ( 'NONE',  ( 3.491481338843133355E-15, -0.0000000000000000000, 1.000000000000000000 ) ) ;
#102 = DIRECTION ( 'NONE',  ( 1.000000000000000000, 0.0000000000000000000, -3.523657060577891777E-15 ) ) ;
#103 = CC_DESIGN_PERSON_AND_ORGANIZATION_ASSIGNMENT ( #84, #155, ( #222 ) ) ;
#104 = DIRECTION ( 'NONE',  ( 3.491481338843133355E-15, -0.0000000000000000000, 1.000000000000000000 ) ) ;
#105 = DIRECTION ( 'NONE',  ( 3.491481338843133355E-15, -0.0000000000000000000, 1.000000000000000000 ) ) ;
#106 = DATE_AND_TIME ( #140, #41 ) ;
#107 = CARTESIAN_POINT ( 'NONE',  ( 1.804593387341708142E-14, 0.0000000000000000000, 5.168560883500646241 ) ) ;
#108 = APPROVAL_PERSON_ORGANIZATION ( #2, #35, #40 ) ;
#109 = CLOSED_SHELL ( 'NONE', ( #7, #26, #203 ) ) ;
#110 = SECURITY_CLASSIFICATION_LEVEL ( 'unclassified' ) ;
#111 = MANIFOLD_SOLID_BREP ( 'Corps-Déplacer/Copier1[1]', #165 ) ;
#112 = AXIS2_PLACEMENT_3D ( 'NONE', #239, #104, #69 ) ;
#113 = FACE_OUTER_BOUND ( 'NONE', #226, .T. ) ;
#114 = CONICAL_SURFACE ( 'NONE', #8, 1.499999999999996225, 0.2617993877991427465 ) ;
#115 = ADVANCED_BREP_SHAPE_REPRESENTATION ( '64255', ( #111, #187, #160 ), #94 ) ;
#116 = PERSON_AND_ORGANIZATION ( #16, #89 ) ;
#117 = DIRECTION ( 'NONE',  ( 1.000000000000000000, 0.0000000000000000000, -3.491481338843133750E-15 ) ) ;
#118 = FACE_OUTER_BOUND ( 'NONE', #39, .T. ) ;
#119 = EDGE_LOOP ( 'NONE', ( #82 ) ) ;
#120 = CIRCLE ( 'NONE', #112, 0.4681483474218597896 ) ;
#121 = ORIENTED_EDGE ( 'NONE', *, *, #159, .T. ) ;
#122 = VERTEX_POINT ( 'NONE', #66 ) ;
#123 = CC_DESIGN_PERSON_AND_ORGANIZATION_ASSIGNMENT ( #211, #124, ( #95 ) ) ;
#124 = PERSON_AND_ORGANIZATION_ROLE ( 'creator' ) ;
#125 = FACE_BOUND ( 'NONE', #60, .T. ) ;
#126 = COORDINATED_UNIVERSAL_TIME_OFFSET ( 1, 0, .AHEAD. ) ;
#127 = CIRCLE ( 'NONE', #91, 1.499999999999998446 ) ;
#128 = DIRECTION ( 'NONE',  ( 3.491481338843133355E-15, -0.0000000000000000000, 1.000000000000000000 ) ) ;
#129 = VERTEX_POINT ( 'NONE', #238 ) ;
#130 = MECHANICAL_CONTEXT ( 'NONE', #179, 'mechanical' ) ;
#131 = LOCAL_TIME ( 8, 14, 16.00000000000000000, #58 ) ;
#132 = CALENDAR_DATE ( 2021, 10, 11 ) ;
#133 = CARTESIAN_POINT ( 'NONE',  ( 0.0000000000000000000, 0.0000000000000000000, 0.0000000000000000000 ) ) ;
#134 = ORIENTED_EDGE ( 'NONE', *, *, #159, .F. ) ;
#135 = EDGE_LOOP ( 'NONE', ( #170 ) ) ;
#136 = DIRECTION ( 'NONE',  ( 3.491481338843133355E-15, -0.0000000000000000000, 1.000000000000000000 ) ) ;
#137 = AXIS2_PLACEMENT_3D ( 'NONE', #150, #97, #42 ) ;
#138 = EDGE_CURVE ( 'NONE', #122, #122, #184, .T. ) ;
#139 = CARTESIAN_POINT ( 'NONE',  ( 0.4000000000000025757, 0.0000000000000000000, 0.7999999999999979350 ) ) ;
#140 = CALENDAR_DATE ( 2021, 10, 11 ) ;
#141 = DIRECTION ( 'NONE',  ( 1.000000000000000000, 0.0000000000000000000, -3.469446951953622866E-15 ) ) ;
#142 = DESIGN_CONTEXT ( 'detailed design', #19, 'design' ) ;
#143 = COORDINATED_UNIVERSAL_TIME_OFFSET ( 1, 0, .AHEAD. ) ;
#144 = DIRECTION ( 'NONE',  ( 0.0000000000000000000, 1.000000000000000000, 0.0000000000000000000 ) ) ;
#145 = CARTESIAN_POINT ( 'NONE',  ( 1.316288464743861212E-13, 1.499999999999994005, 37.69999999999999574 ) ) ;
#146 = CARTESIAN_POINT ( 'NONE',  ( 2.793185071074504712E-15, 0.0000000000000000000, 0.7999999999999993783 ) ) ;
#147 = APPLICATION_PROTOCOL_DEFINITION ( 'international standard', 'config_control_design', 1994, #179 ) ;
#148 = ADVANCED_FACE ( 'NONE', ( #174, #172 ), #215, .F. ) ;
#149 = CIRCLE ( 'NONE', #240, 1.199999999999998845 ) ;
#150 = CARTESIAN_POINT ( 'NONE',  ( 2.793185071074506290E-15, -1.156482317317874683E-16, 0.7999999999999998224 ) ) ;
#151 = ORIENTED_EDGE ( 'NONE', *, *, #57, .F. ) ;
#152 = CYLINDRICAL_SURFACE ( 'NONE', #23, 1.499999999999996225 ) ;
#153 = AXIS2_PLACEMENT_3D ( 'NONE', #146, #128, #13 ) ;
#154 = DIRECTION ( 'NONE',  ( -3.491481338843133355E-15, 1.224646799147353207E-16, -1.000000000000000000 ) ) ;
#155 = PERSON_AND_ORGANIZATION_ROLE ( 'creator' ) ;
#156 = PLANE ( 'NONE',  #200 ) ;
#157 = CARTESIAN_POINT ( 'NONE',  ( 1.500000000000014211, 0.0000000000000000000, 5.168560883500640912 ) ) ;
#158 = DIRECTION ( 'NONE',  ( 1.000000000000000000, 0.0000000000000000000, -3.469446951953622866E-15 ) ) ;
#159 = EDGE_CURVE ( 'NONE', #28, #28, #208, .T. ) ;
#160 = AXIS2_PLACEMENT_3D ( 'NONE', #133, #14, #36 ) ;
#161 = FACE_OUTER_BOUND ( 'NONE', #78, .T. ) ;
#162 = DATE_TIME_ROLE ( 'creation_date' ) ;
#163 = PRODUCT ( '64255', '64255', '', ( #130 ) ) ;
#164 = APPROVAL ( #243, 'UNSPECIFIED' ) ;
#165 = CLOSED_SHELL ( 'NONE', ( #43, #181, #204, #148, #93, #59 ) ) ;
#166 = CONICAL_SURFACE ( 'NONE', #63, 1.199999999999998845, 0.7853981633974450594 ) ;
#167 = AXIS2_PLACEMENT_3D ( 'NONE', #194, #236, #88 ) ;
#168 = ORIENTED_EDGE ( 'NONE', *, *, #229, .F. ) ;
#169 = ORIENTED_EDGE ( 'NONE', *, *, #68, .F. ) ;
#170 = ORIENTED_EDGE ( 'NONE', *, *, #138, .F. ) ;
#171 = LOCAL_TIME ( 8, 14, 16.00000000000000000, #143 ) ;
#172 = FACE_OUTER_BOUND ( 'NONE', #44, .T. ) ;
#173 = FACE_OUTER_BOUND ( 'NONE', #228, .T. ) ;
#174 = FACE_OUTER_BOUND ( 'NONE', #62, .T. ) ;
#175 = DATE_AND_TIME ( #218, #224 ) ;
#176 = PLANE ( 'NONE',  #221 ) ;
#177 = DIRECTION ( 'NONE',  ( 3.491481338843133355E-15, -1.224646799147353207E-16, 1.000000000000000000 ) ) ;
#178 = AXIS2_PLACEMENT_3D ( 'NONE', #212, #11, #241 ) ;
#179 = APPLICATION_CONTEXT ( 'configuration controlled 3d designs of mechanical parts and assemblies' ) ;
#180 = APPLICATION_PROTOCOL_DEFINITION ( 'international standard', 'config_control_design', 1994, #19 ) ;
#181 = ADVANCED_FACE ( 'NONE', ( #161, #219 ), #166, .T. ) ;
#182 =( NAMED_UNIT ( * ) PLANE_ANGLE_UNIT ( ) SI_UNIT ( $, .RADIAN. ) );
#183 = PERSON_AND_ORGANIZATION ( #16, #89 ) ;
#184 = CIRCLE ( 'NONE', #167, 0.3999999999999999667 ) ;
#185 = EDGE_CURVE ( 'NONE', #129, #129, #120, .T. ) ;
#186 = DIRECTION ( 'NONE',  ( -3.491481338843133355E-15, 1.224646799147353207E-16, -1.000000000000000000 ) ) ;
#187 = MANIFOLD_SOLID_BREP ( 'Corps-Déplacer/Copier1[2]', #109 ) ;
#188 = COORDINATED_UNIVERSAL_TIME_OFFSET ( 1, 0, .AHEAD. ) ;
#189 = ORIENTED_EDGE ( 'NONE', *, *, #53, .F. ) ;
#190 = PLANE ( 'NONE',  #137 ) ;
#191 = DIRECTION ( 'NONE',  ( -3.491481338843133355E-15, 1.224646799147353207E-16, -1.000000000000000000 ) ) ;
#192 = CARTESIAN_POINT ( 'NONE',  ( -6.413803915257457113E-31, 2.249659577954772199E-32, -1.836986451539393076E-16 ) ) ;
#193 = APPROVAL_DATE_TIME ( #54, #10 ) ;
#194 = CARTESIAN_POINT ( 'NONE',  ( 0.0000000000000000000, 0.0000000000000000000, 0.0000000000000000000 ) ) ;
#195 = DIRECTION ( 'NONE',  ( -4.275831445896958607E-31, -1.000000000000000000, -1.224646799147353207E-16 ) ) ;
#196 = CARTESIAN_POINT ( 'NONE',  ( 1.326762908760390423E-13, 1.199999999999994182, 38.00000000000000000 ) ) ;
#197 = PERSON_AND_ORGANIZATION_ROLE ( 'design_supplier' ) ;
#198 = CC_DESIGN_SECURITY_CLASSIFICATION ( #52, ( #222 ) ) ;
#199 = PERSON_AND_ORGANIZATION_ROLE ( 'classification_officer' ) ;
#200 = AXIS2_PLACEMENT_3D ( 'NONE', #49, #191, #83 ) ;
#201 = DATE_AND_TIME ( #132, #131 ) ;
#202 = APPROVAL_DATE_TIME ( #5, #35 ) ;
#203 = ADVANCED_FACE ( 'NONE', ( #233 ), #25, .F. ) ;
#204 = ADVANCED_FACE ( 'NONE', ( #67 ), #156, .F. ) ;
#205 = DIRECTION ( 'NONE',  ( -3.491481338843133355E-15, 1.224646799147353207E-16, -1.000000000000000000 ) ) ;
#206 = APPROVAL_PERSON_ORGANIZATION ( #242, #10, #237 ) ;
#207 = EDGE_LOOP ( 'NONE', ( #134 ) ) ;
#208 = CIRCLE ( 'NONE', #33, 1.499999999999996225 ) ;
#209 = CYLINDRICAL_SURFACE ( 'NONE', #232, 0.3999999999999998557 ) ;
#210 = VERTEX_POINT ( 'NONE', #51 ) ;
#211 = PERSON_AND_ORGANIZATION ( #16, #89 ) ;
#212 = CARTESIAN_POINT ( 'NONE',  ( 2.793185071074505501E-15, 0.0000000000000000000, 0.7999999999999996003 ) ) ;
#213 = SHAPE_DEFINITION_REPRESENTATION ( #234, #115 ) ;
#214 = VERTEX_POINT ( 'NONE', #196 ) ;
#215 = TOROIDAL_SURFACE ( 'NONE', #178, 2.399999999999999911, 2.000000000000000000 ) ;
#216 = VERTEX_POINT ( 'NONE', #139 ) ;
#217 = PERSON_AND_ORGANIZATION ( #16, #89 ) ;
#218 = CALENDAR_DATE ( 2021, 10, 11 ) ;
#219 = FACE_BOUND ( 'NONE', #119, .T. ) ;
#220 = APPROVAL_ROLE ( '' ) ;
#221 = AXIS2_PLACEMENT_3D ( 'NONE', #30, #177, #55 ) ;
#222 = PRODUCT_DEFINITION_FORMATION_WITH_SPECIFIED_SOURCE ( 'ANY', '', #163, .NOT_KNOWN. ) ;
#223 = CIRCLE ( 'NONE', #50, 0.3999999999999997446 ) ;
#224 = LOCAL_TIME ( 8, 14, 16.00000000000000000, #126 ) ;
#225 = CARTESIAN_POINT ( 'NONE',  ( -1.786038389295302186E-30, 0.0000000000000000000, -5.115417256925931626E-16 ) ) ;
#226 = EDGE_LOOP ( 'NONE', ( #121 ) ) ;
#227 = CC_DESIGN_APPROVAL ( #35, ( #222 ) ) ;
#228 = EDGE_LOOP ( 'NONE', ( #151 ) ) ;
#229 = EDGE_CURVE ( 'NONE', #214, #214, #149, .T. ) ;
#230 = FACE_OUTER_BOUND ( 'NONE', #80, .T. ) ;
#231 = CC_DESIGN_DATE_AND_TIME_ASSIGNMENT ( #175, #71, ( #52 ) ) ;
#232 = AXIS2_PLACEMENT_3D ( 'NONE', #225, #136, #117 ) ;
#233 = FACE_OUTER_BOUND ( 'NONE', #135, .T. ) ;
#234 = PRODUCT_DEFINITION_SHAPE ( 'NONE', 'NONE',  #95 ) ;
#235 = CC_DESIGN_PERSON_AND_ORGANIZATION_ASSIGNMENT ( #217, #197, ( #222 ) ) ;
#236 = DIRECTION ( 'NONE',  ( 3.491481338843133355E-15, -0.0000000000000000000, 1.000000000000000000 ) ) ;
#237 = APPROVAL_ROLE ( '' ) ;
#238 = CARTESIAN_POINT ( 'NONE',  ( 0.4681483474218643970, 0.0000000000000000000, 1.317638090205026424 ) ) ;
#239 = CARTESIAN_POINT ( 'NONE',  ( 4.600508803299760698E-15, 0.0000000000000000000, 1.317638090205028201 ) ) ;
#240 = AXIS2_PLACEMENT_3D ( 'NONE', #72, #154, #64 ) ;
#241 = DIRECTION ( 'NONE',  ( 1.000000000000000000, 0.0000000000000000000, -3.491481338843133750E-15 ) ) ;
#242 = PERSON_AND_ORGANIZATION ( #16, #89 ) ;
#243 = APPROVAL_STATUS ( 'not_yet_approved' ) ;
ENDSEC;
END-ISO-10303-21;
