ISO-10303-21;
HEADER;
FILE_DESCRIPTION (( 'STEP AP203' ),
    '1' );
FILE_NAME ('64254.step',
    '2021-11-10T07:14:15',
    ( '' ),
    ( '' ),
    'SwSTEP 2.0',
    'SolidWorks 2019',
    '' );
FILE_SCHEMA (( 'CONFIG_CONTROL_DESIGN' ));
ENDSEC;

DATA;
#1 = ORIENTED_EDGE ( 'NONE', *, *, #100, .F. ) ;
#2 = APPROVAL ( #62, 'UNSPECIFIED' ) ;
#3 = CIRCLE ( 'NONE', #206, 0.2499999999999997780 ) ;
#4 = DIRECTION ( 'NONE',  ( -4.275831445896958607E-31, -1.000000000000000000, -1.224646799147353207E-16 ) ) ;
#5 = EDGE_LOOP ( 'NONE', ( #190 ) ) ;
#6 = CARTESIAN_POINT ( 'NONE',  ( 0.2500000000000014988, 0.0000000000000000000, 0.4999999999999985012 ) ) ;
#7 = FACE_OUTER_BOUND ( 'NONE', #207, .T. ) ;
#8 = DIRECTION ( 'NONE',  ( 3.491481338843133355E-15, -1.224646799147353207E-16, 1.000000000000000000 ) ) ;
#9 = EDGE_CURVE ( 'NONE', #89, #89, #204, .T. ) ;
#10 = LOCAL_TIME ( 8, 14, 15.00000000000000000, #31 ) ;
#11 = APPROVAL_ROLE ( '' ) ;
#12 = PERSON_AND_ORGANIZATION ( #13, #192 ) ;
#13 = PERSON ( 'UNSPECIFIED', 'UNSPECIFIED', 'UNSPECIFIED', ('UNSPECIFIED'), ('UNSPECIFIED'), ('UNSPECIFIED') ) ;
#14 = PERSON_AND_ORGANIZATION_ROLE ( 'classification_officer' ) ;
#15 = ADVANCED_FACE ( 'NONE', ( #146, #243 ), #97, .T. ) ;
#16 = COORDINATED_UNIVERSAL_TIME_OFFSET ( 1, 0, .AHEAD. ) ;
#17 = CLOSED_SHELL ( 'NONE', ( #236, #15, #233, #154, #48, #112 ) ) ;
#18 = APPROVAL_ROLE ( '' ) ;
#19 = EDGE_CURVE ( 'NONE', #140, #140, #141, .T. ) ;
#20 = PRODUCT ( '64254', '64254', '', ( #96 ) ) ;
#21 = LOCAL_TIME ( 8, 14, 15.00000000000000000, #115 ) ;
#22 = CARTESIAN_POINT ( 'NONE',  ( 3.553064401646820692E-15, 0.0000000000000000000, 1.017638090205028156 ) ) ;
#23 = VERTEX_POINT ( 'NONE', #205 ) ;
#24 = APPROVAL ( #35, 'UNSPECIFIED' ) ;
#25 = ORIENTED_EDGE ( 'NONE', *, *, #100, .T. ) ;
#26 = DIRECTION ( 'NONE',  ( 3.491481338843133355E-15, -0.0000000000000000000, 1.000000000000000000 ) ) ;
#27 = CC_DESIGN_SECURITY_CLASSIFICATION ( #239, ( #231 ) ) ;
#28 = DIRECTION ( 'NONE',  ( 3.491481338843133355E-15, -0.0000000000000000000, 1.000000000000000000 ) ) ;
#29 = CARTESIAN_POINT ( 'NONE',  ( -1.786038389295302186E-30, 0.0000000000000000000, -5.115417256925931626E-16 ) ) ;
#30 = VERTEX_POINT ( 'NONE', #209 ) ;
#31 = COORDINATED_UNIVERSAL_TIME_OFFSET ( 1, 0, .AHEAD. ) ;
#32 = APPLICATION_CONTEXT ( 'configuration controlled 3d designs of mechanical parts and assemblies' ) ;
#33 = CLOSED_SHELL ( 'NONE', ( #210, #94, #133 ) ) ;
#34 = APPLICATION_PROTOCOL_DEFINITION ( 'international standard', 'config_control_design', 1994, #69 ) ;
#35 = APPROVAL_STATUS ( 'not_yet_approved' ) ;
#36 = PERSON_AND_ORGANIZATION_ROLE ( 'design_supplier' ) ;
#37 = PRODUCT_DEFINITION_SHAPE ( 'NONE', 'NONE',  #156 ) ;
#38 = PERSON_AND_ORGANIZATION ( #13, #192 ) ;
#39 = UNCERTAINTY_MEASURE_WITH_UNIT (LENGTH_MEASURE( 1.000000000000000082E-05 ), #232, 'distance_accuracy_value', 'NONE');
#40 = EDGE_CURVE ( 'NONE', #30, #30, #54, .T. ) ;
#41 = ADVANCED_BREP_SHAPE_REPRESENTATION ( '64254', ( #155, #138, #235 ), #81 ) ;
#42 = AXIS2_PLACEMENT_3D ( 'NONE', #85, #165, #230 ) ;
#43 = EDGE_CURVE ( 'NONE', #23, #23, #166, .T. ) ;
#44 = CARTESIAN_POINT ( 'NONE',  ( 1.895304733430036743E-14, 0.0000000000000000000, 5.428368504635990632 ) ) ;
#45 = CC_DESIGN_APPROVAL ( #167, ( #239 ) ) ;
#46 = DIRECTION ( 'NONE',  ( 1.000000000000000000, 0.0000000000000000000, -3.407851026954633398E-15 ) ) ;
#47 = CARTESIAN_POINT ( 'NONE',  ( 1.316288464743861212E-13, 1.499999999999994005, 37.69999999999999574 ) ) ;
#48 = ADVANCED_FACE ( 'NONE', ( #83, #70 ), #78, .T. ) ;
#49 = DIRECTION ( 'NONE',  ( 1.000000000000000000, 0.0000000000000000000, -3.469446951953622866E-15 ) ) ;
#50 =( NAMED_UNIT ( * ) SI_UNIT ( $, .STERADIAN. ) SOLID_ANGLE_UNIT ( ) );
#51 = DIRECTION ( 'NONE',  ( 0.0000000000000000000, 1.000000000000000000, 0.0000000000000000000 ) ) ;
#52 = CARTESIAN_POINT ( 'NONE',  ( 1.745740669421564508E-15, 0.0000000000000000000, 0.4999999999999993339 ) ) ;
#53 = DIRECTION ( 'NONE',  ( 3.491481338843133355E-15, -0.0000000000000000000, 1.000000000000000000 ) ) ;
#54 = CIRCLE ( 'NONE', #176, 0.2500000000000000000 ) ;
#55 = DIRECTION ( 'NONE',  ( 3.491481338843133355E-15, -0.0000000000000000000, 1.000000000000000000 ) ) ;
#56 = FACE_OUTER_BOUND ( 'NONE', #101, .T. ) ;
#57 = SHAPE_DEFINITION_REPRESENTATION ( #37, #41 ) ;
#58 = AXIS2_PLACEMENT_3D ( 'NONE', #22, #160, #46 ) ;
#59 = COORDINATED_UNIVERSAL_TIME_OFFSET ( 1, 0, .AHEAD. ) ;
#60 = CC_DESIGN_PERSON_AND_ORGANIZATION_ASSIGNMENT ( #220, #36, ( #231 ) ) ;
#61 = DATE_AND_TIME ( #130, #170 ) ;
#62 = APPROVAL_STATUS ( 'not_yet_approved' ) ;
#63 = AXIS2_PLACEMENT_3D ( 'NONE', #29, #194, #212 ) ;
#64 = EDGE_LOOP ( 'NONE', ( #189 ) ) ;
#65 = EDGE_LOOP ( 'NONE', ( #1 ) ) ;
#66 = DIRECTION ( 'NONE',  ( 4.275831445896958607E-31, 1.000000000000000000, 1.224646799147353207E-16 ) ) ;
#67 = DIRECTION ( 'NONE',  ( 1.000000000000000000, 0.0000000000000000000, -3.469446951953617344E-15 ) ) ;
#68 = PLANE ( 'NONE',  #42 ) ;
#69 = APPLICATION_CONTEXT ( 'configuration controlled 3d designs of mechanical parts and assemblies' ) ;
#70 = FACE_OUTER_BOUND ( 'NONE', #137, .T. ) ;
#71 = CARTESIAN_POINT ( 'NONE',  ( 1.326762908760390423E-13, 1.199999999999994182, 38.00000000000000000 ) ) ;
#72 = CARTESIAN_POINT ( 'NONE',  ( 1.326762908760390423E-13, 8.998558695971069014E-33, 38.00000000000000000 ) ) ;
#73 = EDGE_CURVE ( 'NONE', #178, #178, #118, .T. ) ;
#74 = APPROVAL_PERSON_ORGANIZATION ( #114, #167, #18 ) ;
#75 = PLANE ( 'NONE',  #199 ) ;
#76 = PERSON_AND_ORGANIZATION_ROLE ( 'design_owner' ) ;
#77 = CALENDAR_DATE ( 2021, 10, 11 ) ;
#78 = CONICAL_SURFACE ( 'NONE', #217, 1.499999999999996225, 0.2617993877991428020 ) ;
#79 = APPROVAL_DATE_TIME ( #183, #24 ) ;
#80 = PERSON_AND_ORGANIZATION ( #13, #192 ) ;
#81 =( GEOMETRIC_REPRESENTATION_CONTEXT ( 3 ) GLOBAL_UNCERTAINTY_ASSIGNED_CONTEXT ( ( #39 ) ) GLOBAL_UNIT_ASSIGNED_CONTEXT ( ( #232, #87, #50 ) ) REPRESENTATION_CONTEXT ( 'NONE', 'WORKASPACE' ) );
#82 = AXIS2_PLACEMENT_3D ( 'NONE', #191, #224, #66 ) ;
#83 = FACE_BOUND ( 'NONE', #211, .T. ) ;
#84 = CARTESIAN_POINT ( 'NONE',  ( 1.316288464743861212E-13, -4.616918432785521081E-15, 37.69999999999999574 ) ) ;
#85 = CARTESIAN_POINT ( 'NONE',  ( 1.745740669421565494E-15, -7.228014483236714305E-17, 0.4999999999999996669 ) ) ;
#86 = DIRECTION ( 'NONE',  ( 3.491481338843133355E-15, -0.0000000000000000000, 1.000000000000000000 ) ) ;
#87 =( NAMED_UNIT ( * ) PLANE_ANGLE_UNIT ( ) SI_UNIT ( $, .RADIAN. ) );
#88 = EDGE_LOOP ( 'NONE', ( #229 ) ) ;
#89 = VERTEX_POINT ( 'NONE', #143 ) ;
#90 = EDGE_CURVE ( 'NONE', #162, #162, #168, .T. ) ;
#91 = DIRECTION ( 'NONE',  ( -3.491481338843133355E-15, 1.224646799147353207E-16, -1.000000000000000000 ) ) ;
#92 = AXIS2_PLACEMENT_3D ( 'NONE', #72, #172, #147 ) ;
#93 = CARTESIAN_POINT ( 'NONE',  ( 0.0000000000000000000, 0.0000000000000000000, 0.0000000000000000000 ) ) ;
#94 = ADVANCED_FACE ( 'NONE', ( #164, #7 ), #179, .T. ) ;
#95 = PERSON_AND_ORGANIZATION ( #13, #192 ) ;
#96 = MECHANICAL_CONTEXT ( 'NONE', #69, 'mechanical' ) ;
#97 = CONICAL_SURFACE ( 'NONE', #157, 1.199999999999998845, 0.7853981633974450594 ) ;
#98 = COORDINATED_UNIVERSAL_TIME_OFFSET ( 1, 0, .AHEAD. ) ;
#99 = APPROVAL_ROLE ( '' ) ;
#100 = EDGE_CURVE ( 'NONE', #174, #174, #3, .T. ) ;
#101 = EDGE_LOOP ( 'NONE', ( #173 ) ) ;
#102 = DIRECTION ( 'NONE',  ( 3.491481338843133355E-15, -0.0000000000000000000, 1.000000000000000000 ) ) ;
#103 = PLANE ( 'NONE',  #92 ) ;
#104 = EDGE_LOOP ( 'NONE', ( #25 ) ) ;
#105 = FACE_OUTER_BOUND ( 'NONE', #88, .T. ) ;
#106 = CC_DESIGN_APPROVAL ( #24, ( #231 ) ) ;
#107 = CARTESIAN_POINT ( 'NONE',  ( 1.326762908760390423E-13, -4.653657836759941941E-15, 38.00000000000000000 ) ) ;
#108 = CARTESIAN_POINT ( 'NONE',  ( 1.745740669421564903E-15, 0.0000000000000000000, 0.4999999999999994449 ) ) ;
#109 = DIRECTION ( 'NONE',  ( 0.0000000000000000000, 1.000000000000000000, 0.0000000000000000000 ) ) ;
#110 = CARTESIAN_POINT ( 'NONE',  ( 1.745740669421565494E-15, -7.228014483236714305E-17, 0.4999999999999996669 ) ) ;
#111 = CALENDAR_DATE ( 2021, 10, 11 ) ;
#112 = ADVANCED_FACE ( 'NONE', ( #226 ), #125, .F. ) ;
#113 = APPLICATION_PROTOCOL_DEFINITION ( 'international standard', 'config_control_design', 1994, #32 ) ;
#114 = PERSON_AND_ORGANIZATION ( #13, #192 ) ;
#115 = COORDINATED_UNIVERSAL_TIME_OFFSET ( 1, 0, .AHEAD. ) ;
#116 = CC_DESIGN_DATE_AND_TIME_ASSIGNMENT ( #196, #237, ( #156 ) ) ;
#117 = AXIS2_PLACEMENT_3D ( 'NONE', #108, #28, #129 ) ;
#118 = CIRCLE ( 'NONE', #135, 1.499999999999998446 ) ;
#119 = DIRECTION ( 'NONE',  ( 1.000000000000000000, 0.0000000000000000000, -3.469446951953622866E-15 ) ) ;
#120 = APPROVAL_PERSON_ORGANIZATION ( #234, #2, #99 ) ;
#121 = CARTESIAN_POINT ( 'NONE',  ( -6.413803915257457113E-31, 2.249659577954772199E-32, -1.836986451539393076E-16 ) ) ;
#122 = EDGE_LOOP ( 'NONE', ( #203 ) ) ;
#123 = PRODUCT_RELATED_PRODUCT_CATEGORY ( 'detail', '', ( #20 ) ) ;
#124 = ORIENTED_EDGE ( 'NONE', *, *, #9, .F. ) ;
#125 = PLANE ( 'NONE',  #150 ) ;
#126 = AXIS2_PLACEMENT_3D ( 'NONE', #107, #91, #109 ) ;
#127 = EDGE_LOOP ( 'NONE', ( #144 ) ) ;
#128 = FACE_OUTER_BOUND ( 'NONE', #5, .T. ) ;
#129 = DIRECTION ( 'NONE',  ( 1.000000000000000000, 0.0000000000000000000, -3.491481338843132961E-15 ) ) ;
#130 = CALENDAR_DATE ( 2021, 10, 11 ) ;
#131 = DATE_AND_TIME ( #111, #136 ) ;
#132 = CALENDAR_DATE ( 2021, 10, 11 ) ;
#133 = ADVANCED_FACE ( 'NONE', ( #228 ), #75, .F. ) ;
#134 = SECURITY_CLASSIFICATION_LEVEL ( 'unclassified' ) ;
#135 = AXIS2_PLACEMENT_3D ( 'NONE', #84, #158, #51 ) ;
#136 = LOCAL_TIME ( 8, 14, 15.00000000000000000, #98 ) ;
#137 = EDGE_LOOP ( 'NONE', ( #124 ) ) ;
#138 = MANIFOLD_SOLID_BREP ( 'Corps-Déplacer/Copier1[2]', #33 ) ;
#139 = ORIENTED_EDGE ( 'NONE', *, *, #43, .F. ) ;
#140 = VERTEX_POINT ( 'NONE', #145 ) ;
#141 = CIRCLE ( 'NONE', #58, 0.3181483474218598229 ) ;
#142 = CC_DESIGN_DATE_AND_TIME_ASSIGNMENT ( #131, #238, ( #239 ) ) ;
#143 = CARTESIAN_POINT ( 'NONE',  ( 1.500000000000015099, 0.0000000000000000000, 5.428368504635985303 ) ) ;
#144 = ORIENTED_EDGE ( 'NONE', *, *, #73, .T. ) ;
#145 = CARTESIAN_POINT ( 'NONE',  ( 0.3181483474218633756, 0.0000000000000000000, 1.017638090205027046 ) ) ;
#146 = FACE_OUTER_BOUND ( 'NONE', #175, .T. ) ;
#147 = DIRECTION ( 'NONE',  ( 4.275831445896958607E-31, 1.000000000000000000, 1.224646799147353207E-16 ) ) ;
#148 = DIRECTION ( 'NONE',  ( 1.000000000000000000, 0.0000000000000000000, -3.469446951953617344E-15 ) ) ;
#149 = CALENDAR_DATE ( 2021, 10, 11 ) ;
#150 = AXIS2_PLACEMENT_3D ( 'NONE', #110, #180, #4 ) ;
#151 = PERSON_AND_ORGANIZATION_ROLE ( 'creator' ) ;
#152 = DATE_AND_TIME ( #132, #21 ) ;
#153 = LOCAL_TIME ( 8, 14, 15.00000000000000000, #59 ) ;
#154 = ADVANCED_FACE ( 'NONE', ( #214, #56 ), #213, .F. ) ;
#155 = MANIFOLD_SOLID_BREP ( 'Corps-Déplacer/Copier1[1]', #17 ) ;
#156 = PRODUCT_DEFINITION ( 'UNKNOWN', '', #231, #184 ) ;
#157 = AXIS2_PLACEMENT_3D ( 'NONE', #241, #185, #161 ) ;
#158 = DIRECTION ( 'NONE',  ( -3.491481338843133355E-15, 1.224646799147353207E-16, -1.000000000000000000 ) ) ;
#159 = CYLINDRICAL_SURFACE ( 'NONE', #82, 1.499999999999996225 ) ;
#160 = DIRECTION ( 'NONE',  ( 3.491481338843133355E-15, -0.0000000000000000000, 1.000000000000000000 ) ) ;
#161 = DIRECTION ( 'NONE',  ( 0.0000000000000000000, 1.000000000000000000, 0.0000000000000000000 ) ) ;
#162 = VERTEX_POINT ( 'NONE', #71 ) ;
#163 = DIRECTION ( 'NONE',  ( -4.275831445896958607E-31, -1.000000000000000000, -1.224646799147353207E-16 ) ) ;
#164 = FACE_OUTER_BOUND ( 'NONE', #122, .T. ) ;
#165 = DIRECTION ( 'NONE',  ( 3.491481338843133355E-15, -1.224646799147353207E-16, 1.000000000000000000 ) ) ;
#166 = CIRCLE ( 'NONE', #186, 0.2499999999999997780 ) ;
#167 = APPROVAL ( #219, 'UNSPECIFIED' ) ;
#168 = CIRCLE ( 'NONE', #126, 1.199999999999998845 ) ;
#169 = EDGE_LOOP ( 'NONE', ( #187 ) ) ;
#170 = LOCAL_TIME ( 8, 14, 15.00000000000000000, #16 ) ;
#171 = CARTESIAN_POINT ( 'NONE',  ( 1.745740669421564508E-15, 0.0000000000000000000, 0.4999999999999993339 ) ) ;
#172 = DIRECTION ( 'NONE',  ( -3.491481338843133355E-15, 1.224646799147353207E-16, -1.000000000000000000 ) ) ;
#173 = ORIENTED_EDGE ( 'NONE', *, *, #19, .F. ) ;
#174 = VERTEX_POINT ( 'NONE', #6 ) ;
#175 = EDGE_LOOP ( 'NONE', ( #202 ) ) ;
#176 = AXIS2_PLACEMENT_3D ( 'NONE', #240, #26, #225 ) ;
#177 = EDGE_LOOP ( 'NONE', ( #223 ) ) ;
#178 = VERTEX_POINT ( 'NONE', #47 ) ;
#179 = CYLINDRICAL_SURFACE ( 'NONE', #63, 0.2499999999999998890 ) ;
#180 = DIRECTION ( 'NONE',  ( 3.491481338843133355E-15, -1.224646799147353207E-16, 1.000000000000000000 ) ) ;
#181 = DIRECTION ( 'NONE',  ( 1.000000000000000000, 0.0000000000000000000, 0.0000000000000000000 ) ) ;
#182 = CC_DESIGN_PERSON_AND_ORGANIZATION_ASSIGNMENT ( #216, #14, ( #239 ) ) ;
#183 = DATE_AND_TIME ( #149, #153 ) ;
#184 = DESIGN_CONTEXT ( 'detailed design', #32, 'design' ) ;
#185 = DIRECTION ( 'NONE',  ( -3.491481338843133355E-15, 1.224646799147353207E-16, -1.000000000000000000 ) ) ;
#186 = AXIS2_PLACEMENT_3D ( 'NONE', #171, #53, #67 ) ;
#187 = ORIENTED_EDGE ( 'NONE', *, *, #9, .T. ) ;
#188 = FACE_OUTER_BOUND ( 'NONE', #169, .T. ) ;
#189 = ORIENTED_EDGE ( 'NONE', *, *, #40, .F. ) ;
#190 = ORIENTED_EDGE ( 'NONE', *, *, #43, .T. ) ;
#191 = CARTESIAN_POINT ( 'NONE',  ( 0.0000000000000000000, 0.0000000000000000000, 0.0000000000000000000 ) ) ;
#192 = ORGANIZATION ( 'UNSPECIFIED', 'UNSPECIFIED', '' ) ;
#193 = CC_DESIGN_PERSON_AND_ORGANIZATION_ASSIGNMENT ( #95, #76, ( #20 ) ) ;
#194 = DIRECTION ( 'NONE',  ( 3.491481338843133355E-15, -0.0000000000000000000, 1.000000000000000000 ) ) ;
#195 = APPROVAL_DATE_TIME ( #61, #2 ) ;
#196 = DATE_AND_TIME ( #77, #10 ) ;
#197 = APPROVAL_PERSON_ORGANIZATION ( #12, #24, #11 ) ;
#198 = DIRECTION ( 'NONE',  ( 0.0000000000000000000, 0.0000000000000000000, 1.000000000000000000 ) ) ;
#199 = AXIS2_PLACEMENT_3D ( 'NONE', #121, #8, #163 ) ;
#200 = CC_DESIGN_PERSON_AND_ORGANIZATION_ASSIGNMENT ( #80, #151, ( #156 ) ) ;
#201 = CC_DESIGN_APPROVAL ( #2, ( #156 ) ) ;
#202 = ORIENTED_EDGE ( 'NONE', *, *, #73, .F. ) ;
#203 = ORIENTED_EDGE ( 'NONE', *, *, #40, .T. ) ;
#204 = CIRCLE ( 'NONE', #222, 1.499999999999996225 ) ;
#205 = CARTESIAN_POINT ( 'NONE',  ( 0.2500000000000014988, 0.0000000000000000000, 0.4999999999999985012 ) ) ;
#206 = AXIS2_PLACEMENT_3D ( 'NONE', #52, #55, #148 ) ;
#207 = EDGE_LOOP ( 'NONE', ( #139 ) ) ;
#208 = CARTESIAN_POINT ( 'NONE',  ( 1.895304733430036743E-14, 0.0000000000000000000, 5.428368504635990632 ) ) ;
#209 = CARTESIAN_POINT ( 'NONE',  ( 0.2500000000000000000, 0.0000000000000000000, -8.728703347107833388E-16 ) ) ;
#210 = ADVANCED_FACE ( 'NONE', ( #128 ), #68, .T. ) ;
#211 = EDGE_LOOP ( 'NONE', ( #227 ) ) ;
#212 = DIRECTION ( 'NONE',  ( 1.000000000000000000, 0.0000000000000000000, -3.491481338843133355E-15 ) ) ;
#213 = TOROIDAL_SURFACE ( 'NONE', #117, 2.250000000000000000, 2.000000000000000000 ) ;
#214 = FACE_OUTER_BOUND ( 'NONE', #104, .T. ) ;
#215 = APPROVAL_DATE_TIME ( #152, #167 ) ;
#216 = PERSON_AND_ORGANIZATION ( #13, #192 ) ;
#217 = AXIS2_PLACEMENT_3D ( 'NONE', #208, #102, #49 ) ;
#218 = PERSON_AND_ORGANIZATION_ROLE ( 'creator' ) ;
#219 = APPROVAL_STATUS ( 'not_yet_approved' ) ;
#220 = PERSON_AND_ORGANIZATION ( #13, #192 ) ;
#221 = CC_DESIGN_PERSON_AND_ORGANIZATION_ASSIGNMENT ( #38, #218, ( #231 ) ) ;
#222 = AXIS2_PLACEMENT_3D ( 'NONE', #44, #86, #119 ) ;
#223 = ORIENTED_EDGE ( 'NONE', *, *, #90, .T. ) ;
#224 = DIRECTION ( 'NONE',  ( -3.491481338843133355E-15, 1.224646799147353207E-16, -1.000000000000000000 ) ) ;
#225 = DIRECTION ( 'NONE',  ( 1.000000000000000000, 0.0000000000000000000, -3.491481338843133355E-15 ) ) ;
#226 = FACE_OUTER_BOUND ( 'NONE', #65, .T. ) ;
#227 = ORIENTED_EDGE ( 'NONE', *, *, #19, .T. ) ;
#228 = FACE_OUTER_BOUND ( 'NONE', #64, .T. ) ;
#229 = ORIENTED_EDGE ( 'NONE', *, *, #90, .F. ) ;
#230 = DIRECTION ( 'NONE',  ( -4.275831445896958607E-31, -1.000000000000000000, -1.224646799147353207E-16 ) ) ;
#231 = PRODUCT_DEFINITION_FORMATION_WITH_SPECIFIED_SOURCE ( 'ANY', '', #20, .NOT_KNOWN. ) ;
#232 =( LENGTH_UNIT ( ) NAMED_UNIT ( * ) SI_UNIT ( .MILLI., .METRE. ) );
#233 = ADVANCED_FACE ( 'NONE', ( #105 ), #103, .F. ) ;
#234 = PERSON_AND_ORGANIZATION ( #13, #192 ) ;
#235 = AXIS2_PLACEMENT_3D ( 'NONE', #93, #198, #181 ) ;
#236 = ADVANCED_FACE ( 'NONE', ( #242, #188 ), #159, .T. ) ;
#237 = DATE_TIME_ROLE ( 'creation_date' ) ;
#238 = DATE_TIME_ROLE ( 'classification_date' ) ;
#239 = SECURITY_CLASSIFICATION ( '', '', #134 ) ;
#240 = CARTESIAN_POINT ( 'NONE',  ( 0.0000000000000000000, 0.0000000000000000000, 0.0000000000000000000 ) ) ;
#241 = CARTESIAN_POINT ( 'NONE',  ( 1.326762908760390423E-13, -4.653657836759941941E-15, 38.00000000000000000 ) ) ;
#242 = FACE_OUTER_BOUND ( 'NONE', #127, .T. ) ;
#243 = FACE_BOUND ( 'NONE', #177, .T. ) ;
ENDSEC;
END-ISO-10303-21;
