ISO-10303-21;
HEADER;
FILE_DESCRIPTION (( 'STEP AP203' ),
    '1' );
FILE_NAME ('63966.step',
    '2021-12-01T14:04:21',
    ( '' ),
    ( '' ),
    'SwSTEP 2.0',
    'SolidWorks 2019',
    '' );
FILE_SCHEMA (( 'CONFIG_CONTROL_DESIGN' ));
ENDSEC;

DATA;
#1 = PERSON_AND_ORGANIZATION ( #251, #158 ) ;
#2 = EDGE_LOOP ( 'NONE', ( #254 ) ) ;
#3 = EDGE_CURVE ( 'NONE', #209, #209, #11, .T. ) ;
#4 = ORIENTED_EDGE ( 'NONE', *, *, #92, .F. ) ;
#5 = DIRECTION ( 'NONE',  ( 4.275831445896958607E-31, 1.000000000000000000, 1.224646799147353207E-16 ) ) ;
#6 = CIRCLE ( 'NONE', #80, 0.7899999999999997025 ) ;
#7 = FACE_OUTER_BOUND ( 'NONE', #236, .T. ) ;
#8 = ADVANCED_FACE ( 'NONE', ( #94, #111 ), #188, .F. ) ;
#9 = DIRECTION ( 'NONE',  ( 3.491481338843133355E-15, -1.224646799147353207E-16, 1.000000000000000000 ) ) ;
#10 = CARTESIAN_POINT ( 'NONE',  ( 1.745740669421566678E-13, -6.123233995736766085E-15, 50.00000000000000000 ) ) ;
#11 = CIRCLE ( 'NONE', #63, 0.7899999999999988143 ) ;
#12 = CIRCLE ( 'NONE', #286, 1.499999999999996447 ) ;
#13 = DIRECTION ( 'NONE',  ( 0.0000000000000000000, 1.000000000000000000, 0.0000000000000000000 ) ) ;
#14 = CARTESIAN_POINT ( 'NONE',  ( 2.444036937190193349E-14, 5.924051141514322635E-33, 7.000000000000000000 ) ) ;
#15 = VERTEX_POINT ( 'NONE', #139 ) ;
#16 = VERTEX_POINT ( 'NONE', #65 ) ;
#17 = PERSON_AND_ORGANIZATION ( #251, #158 ) ;
#18 = VERTEX_POINT ( 'NONE', #62 ) ;
#19 = ADVANCED_BREP_SHAPE_REPRESENTATION ( '63966', ( #138, #132, #193 ), #71 ) ;
#20 = COORDINATED_UNIVERSAL_TIME_OFFSET ( 1, 0, .AHEAD. ) ;
#21 = APPROVAL_PERSON_ORGANIZATION ( #228, #59, #120 ) ;
#22 = SECURITY_CLASSIFICATION_LEVEL ( 'unclassified' ) ;
#23 = ORIENTED_EDGE ( 'NONE', *, *, #280, .T. ) ;
#24 = DIRECTION ( 'NONE',  ( 4.275831445896958607E-31, 1.000000000000000000, 1.224646799147353454E-16 ) ) ;
#25 = DIRECTION ( 'NONE',  ( -4.275831445896958607E-31, -1.000000000000000000, -1.224646799147353207E-16 ) ) ;
#26 = AXIS2_PLACEMENT_3D ( 'NONE', #37, #152, #243 ) ;
#27 = ADVANCED_FACE ( 'NONE', ( #165, #210 ), #285, .T. ) ;
#28 = DIRECTION ( 'NONE',  ( -3.491481338843133355E-15, 1.224646799147353207E-16, -1.000000000000000000 ) ) ;
#29 = EDGE_LOOP ( 'NONE', ( #91 ) ) ;
#30 = CARTESIAN_POINT ( 'NONE',  ( 5.358479882634336420E-14, -1.879501735712543696E-15, 15.34729635533384773 ) ) ;
#31 = UNCERTAINTY_MEASURE_WITH_UNIT (LENGTH_MEASURE( 1.000000000000000082E-05 ), #66, 'distance_accuracy_value', 'NONE');
#32 = CC_DESIGN_APPROVAL ( #272, ( #177 ) ) ;
#33 = DIRECTION ( 'NONE',  ( 0.0000000000000000000, 1.000000000000000000, 0.0000000000000000000 ) ) ;
#34 = CARTESIAN_POINT ( 'NONE',  ( 6.902210161358734580E-14, -2.420969428394839711E-15, 19.76871560094235392 ) ) ;
#35 = DIRECTION ( 'NONE',  ( -4.275831445896958607E-31, -1.000000000000000000, -1.224646799147353207E-16 ) ) ;
#36 = AXIS2_PLACEMENT_3D ( 'NONE', #10, #126, #33 ) ;
#37 = CARTESIAN_POINT ( 'NONE',  ( -6.546215385950405737E-31, 2.296103269905949156E-32, -1.874910604024430085E-16 ) ) ;
#38 = VERTEX_POINT ( 'NONE', #136 ) ;
#39 = EDGE_LOOP ( 'NONE', ( #166 ) ) ;
#40 = AXIS2_PLACEMENT_3D ( 'NONE', #301, #187, #75 ) ;
#41 = VERTEX_POINT ( 'NONE', #160 ) ;
#42 = CARTESIAN_POINT ( 'NONE',  ( 1.745740669421566678E-13, 8.998558695971067645E-33, 50.00000000000000000 ) ) ;
#43 = COORDINATED_UNIVERSAL_TIME_OFFSET ( 1, 0, .AHEAD. ) ;
#44 = CARTESIAN_POINT ( 'NONE',  ( 0.0000000000000000000, 0.0000000000000000000, 0.0000000000000000000 ) ) ;
#45 = ORIENTED_EDGE ( 'NONE', *, *, #113, .T. ) ;
#46 = DATE_AND_TIME ( #50, #97 ) ;
#47 = EDGE_LOOP ( 'NONE', ( #190 ) ) ;
#48 = AXIS2_PLACEMENT_3D ( 'NONE', #149, #123, #266 ) ;
#49 = CC_DESIGN_APPROVAL ( #104, ( #179 ) ) ;
#50 = CALENDAR_DATE ( 2021, 1, 12 ) ;
#51 = DIRECTION ( 'NONE',  ( 3.491481338843133355E-15, -1.224646799147353207E-16, 1.000000000000000000 ) ) ;
#52 = DIRECTION ( 'NONE',  ( -3.491481338843133355E-15, 1.224646799147353207E-16, -1.000000000000000000 ) ) ;
#53 = PLANE ( 'NONE',  #140 ) ;
#54 = LOCAL_TIME ( 15, 4, 21.00000000000000000, #182 ) ;
#55 = DIRECTION ( 'NONE',  ( 3.491481338843133355E-15, -1.224646799147353207E-16, 1.000000000000000000 ) ) ;
#56 = CARTESIAN_POINT ( 'NONE',  ( 2.444036937190193349E-14, 5.924051141514322635E-33, 7.000000000000000000 ) ) ;
#57 = DIRECTION ( 'NONE',  ( 0.0000000000000000000, -1.000000000000000000, 0.0000000000000000000 ) ) ;
#58 = PERSON_AND_ORGANIZATION_ROLE ( 'creator' ) ;
#59 = APPROVAL ( #284, 'UNSPECIFIED' ) ;
#60 = CALENDAR_DATE ( 2021, 1, 12 ) ;
#61 = EDGE_LOOP ( 'NONE', ( #233 ) ) ;
#62 = CARTESIAN_POINT ( 'NONE',  ( 5.237222008264699402E-14, 0.6899999999999975042, 14.99999999999999822 ) ) ;
#63 = AXIS2_PLACEMENT_3D ( 'NONE', #73, #28, #119 ) ;
#64 = CIRCLE ( 'NONE', #268, 0.6899999999999983924 ) ;
#65 = CARTESIAN_POINT ( 'NONE',  ( 5.358479882634336420E-14, 0.7203844939755786880, 15.34729635533384773 ) ) ;
#66 =( LENGTH_UNIT ( ) NAMED_UNIT ( * ) SI_UNIT ( .MILLI., .METRE. ) );
#67 = ADVANCED_FACE ( 'NONE', ( #171 ), #145, .F. ) ;
#68 = SHAPE_DEFINITION_REPRESENTATION ( #122, #19 ) ;
#69 = PERSON_AND_ORGANIZATION ( #251, #158 ) ;
#70 = EDGE_LOOP ( 'NONE', ( #147 ) ) ;
#71 =( GEOMETRIC_REPRESENTATION_CONTEXT ( 3 ) GLOBAL_UNCERTAINTY_ASSIGNED_CONTEXT ( ( #31 ) ) GLOBAL_UNIT_ASSIGNED_CONTEXT ( ( #66, #246, #155 ) ) REPRESENTATION_CONTEXT ( 'NONE', 'WORKASPACE' ) );
#72 = CARTESIAN_POINT ( 'NONE',  ( 5.237222008264700033E-14, -1.734723475976807094E-15, 15.00000000000000000 ) ) ;
#73 = CARTESIAN_POINT ( 'NONE',  ( 8.728703347107829444E-16, -3.061616997868381785E-17, 0.2499999999999998890 ) ) ;
#74 = CALENDAR_DATE ( 2021, 1, 12 ) ;
#75 = DIRECTION ( 'NONE',  ( 4.275831445896958607E-31, 1.000000000000000000, 1.224646799147352961E-16 ) ) ;
#76 = AXIS2_PLACEMENT_3D ( 'NONE', #56, #55, #35 ) ;
#77 = EDGE_LOOP ( 'NONE', ( #45 ) ) ;
#78 = DIRECTION ( 'NONE',  ( -3.491481338843133355E-15, 1.224646799147353207E-16, -1.000000000000000000 ) ) ;
#79 = DIRECTION ( 'NONE',  ( 0.0000000000000000000, 1.000000000000000000, 0.0000000000000000000 ) ) ;
#80 = AXIS2_PLACEMENT_3D ( 'NONE', #82, #173, #178 ) ;
#81 = DIRECTION ( 'NONE',  ( 3.491481338843133355E-15, -1.224646799147353207E-16, 1.000000000000000000 ) ) ;
#82 = CARTESIAN_POINT ( 'NONE',  ( 2.444036937190193349E-14, -8.572527594031473190E-16, 7.000000000000000000 ) ) ;
#83 = DIRECTION ( 'NONE',  ( 4.275831445896958607E-31, 1.000000000000000000, 1.224646799147353207E-16 ) ) ;
#84 = ADVANCED_FACE ( 'NONE', ( #96, #194 ), #287, .T. ) ;
#85 = APPROVAL_DATE_TIME ( #295, #272 ) ;
#86 = DIRECTION ( 'NONE',  ( 0.0000000000000000000, 0.0000000000000000000, 1.000000000000000000 ) ) ;
#87 = DATE_TIME_ROLE ( 'classification_date' ) ;
#88 = ORIENTED_EDGE ( 'NONE', *, *, #92, .T. ) ;
#89 = CC_DESIGN_PERSON_AND_ORGANIZATION_ASSIGNMENT ( #110, #58, ( #177 ) ) ;
#90 = ADVANCED_FACE ( 'NONE', ( #302, #151 ), #128, .T. ) ;
#91 = ORIENTED_EDGE ( 'NONE', *, *, #3, .T. ) ;
#92 = EDGE_CURVE ( 'NONE', #105, #105, #267, .T. ) ;
#93 = ORIENTED_EDGE ( 'NONE', *, *, #273, .T. ) ;
#94 = FACE_OUTER_BOUND ( 'NONE', #2, .T. ) ;
#95 = DESIGN_CONTEXT ( 'detailed design', #250, 'design' ) ;
#96 = FACE_OUTER_BOUND ( 'NONE', #276, .T. ) ;
#97 = LOCAL_TIME ( 15, 4, 21.00000000000000000, #43 ) ;
#98 = FACE_OUTER_BOUND ( 'NONE', #231, .T. ) ;
#99 = EDGE_CURVE ( 'NONE', #252, #252, #207, .T. ) ;
#100 = DIRECTION ( 'NONE',  ( -4.875772011106933583E-31, -1.000000000000000000, -1.372407813272792498E-16 ) ) ;
#101 = DIRECTION ( 'NONE',  ( -3.491481338843133355E-15, 1.224646799147353207E-16, -1.000000000000000000 ) ) ;
#102 = CARTESIAN_POINT ( 'NONE',  ( 2.504511167915744066E-14, -8.784642641776459355E-16, 7.173205080756893004 ) ) ;
#103 = FACE_BOUND ( 'NONE', #77, .T. ) ;
#104 = APPROVAL ( #214, 'UNSPECIFIED' ) ;
#105 = VERTEX_POINT ( 'NONE', #133 ) ;
#106 = EDGE_CURVE ( 'NONE', #41, #41, #213, .T. ) ;
#107 = DIRECTION ( 'NONE',  ( 1.000000000000000000, 0.0000000000000000000, 0.0000000000000000000 ) ) ;
#108 = VERTEX_POINT ( 'NONE', #248 ) ;
#109 = AXIS2_PLACEMENT_3D ( 'NONE', #30, #124, #13 ) ;
#110 = PERSON_AND_ORGANIZATION ( #251, #158 ) ;
#111 = FACE_OUTER_BOUND ( 'NONE', #117, .T. ) ;
#112 = CC_DESIGN_DATE_AND_TIME_ASSIGNMENT ( #277, #157, ( #177 ) ) ;
#113 = EDGE_CURVE ( 'NONE', #225, #225, #170, .T. ) ;
#114 = PERSON_AND_ORGANIZATION_ROLE ( 'classification_officer' ) ;
#115 = EDGE_LOOP ( 'NONE', ( #148 ) ) ;
#116 = APPROVAL_DATE_TIME ( #142, #104 ) ;
#117 = EDGE_LOOP ( 'NONE', ( #234 ) ) ;
#118 = COORDINATED_UNIVERSAL_TIME_OFFSET ( 1, 0, .AHEAD. ) ;
#119 = DIRECTION ( 'NONE',  ( 4.875772011106933583E-31, 1.000000000000000000, 1.372407813272792498E-16 ) ) ;
#120 = APPROVAL_ROLE ( '' ) ;
#121 = ORIENTED_EDGE ( 'NONE', *, *, #280, .F. ) ;
#122 = PRODUCT_DEFINITION_SHAPE ( 'NONE', 'NONE',  #177 ) ;
#123 = DIRECTION ( 'NONE',  ( -3.491481338843133355E-15, 1.224646799147353207E-16, -1.000000000000000000 ) ) ;
#124 = DIRECTION ( 'NONE',  ( -3.491481338843133355E-15, 1.224646799147353207E-16, -1.000000000000000000 ) ) ;
#125 = APPLICATION_CONTEXT ( 'configuration controlled 3d designs of mechanical parts and assemblies' ) ;
#126 = DIRECTION ( 'NONE',  ( -3.491481338843133355E-15, 1.224646799147353207E-16, -1.000000000000000000 ) ) ;
#127 = DIRECTION ( 'NONE',  ( -3.491481338843133355E-15, 1.224646799147353207E-16, -1.000000000000000000 ) ) ;
#128 = CONICAL_SURFACE ( 'NONE', #297, 1.499999999999996447, 0.1745329251994261477 ) ;
#129 = APPROVAL_PERSON_ORGANIZATION ( #17, #272, #229 ) ;
#130 = CARTESIAN_POINT ( 'NONE',  ( 1.745740669421566678E-13, -6.123233995736766085E-15, 50.00000000000000000 ) ) ;
#131 = EDGE_CURVE ( 'NONE', #18, #18, #208, .T. ) ;
#132 = MANIFOLD_SOLID_BREP ( 'Corps-Déplacer/Copier1[2]', #200 ) ;
#133 = CARTESIAN_POINT ( 'NONE',  ( 1.735266225405037467E-13, 1.499999999999995559, 49.70000000000000284 ) ) ;
#134 = CC_DESIGN_PERSON_AND_ORGANIZATION_ASSIGNMENT ( #1, #192, ( #303 ) ) ;
#135 = CONICAL_SURFACE ( 'NONE', #189, 0.7899999999999988143, 0.5235987755982925984 ) ;
#136 = CARTESIAN_POINT ( 'NONE',  ( 6.902210161358734580E-14, 1.499999999999994005, 19.76871560094235392 ) ) ;
#137 = CALENDAR_DATE ( 2021, 1, 12 ) ;
#138 = MANIFOLD_SOLID_BREP ( 'Corps-Déplacer/Copier1[1]', #150 ) ;
#139 = CARTESIAN_POINT ( 'NONE',  ( 2.444036937190193349E-14, 0.7899999999999988143, 7.000000000000000000 ) ) ;
#140 = AXIS2_PLACEMENT_3D ( 'NONE', #42, #244, #83 ) ;
#141 = ORIENTED_EDGE ( 'NONE', *, *, #156, .F. ) ;
#142 = DATE_AND_TIME ( #232, #227 ) ;
#143 = DIRECTION ( 'NONE',  ( -3.491481338843133355E-15, 1.224646799147353207E-16, -1.000000000000000000 ) ) ;
#144 = CC_DESIGN_PERSON_AND_ORGANIZATION_ASSIGNMENT ( #181, #184, ( #196 ) ) ;
#145 = PLANE ( 'NONE',  #261 ) ;
#146 = AXIS2_PLACEMENT_3D ( 'NONE', #130, #101, #79 ) ;
#147 = ORIENTED_EDGE ( 'NONE', *, *, #99, .F. ) ;
#148 = ORIENTED_EDGE ( 'NONE', *, *, #113, .F. ) ;
#149 = CARTESIAN_POINT ( 'NONE',  ( 1.735266225405037467E-13, -6.086494591762345225E-15, 49.70000000000000284 ) ) ;
#150 = CLOSED_SHELL ( 'NONE', ( #167, #245, #258, #8, #90, #84, #198, #300 ) ) ;
#151 = FACE_OUTER_BOUND ( 'NONE', #256, .T. ) ;
#152 = DIRECTION ( 'NONE',  ( -3.491481338843133355E-15, 1.224646799147353207E-16, -1.000000000000000000 ) ) ;
#153 = PLANE ( 'NONE',  #230 ) ;
#154 = DIRECTION ( 'NONE',  ( -3.491481338843133355E-15, 1.224646799147353207E-16, -1.000000000000000000 ) ) ;
#155 =( NAMED_UNIT ( * ) SI_UNIT ( $, .STERADIAN. ) SOLID_ANGLE_UNIT ( ) );
#156 = EDGE_CURVE ( 'NONE', #16, #16, #278, .T. ) ;
#157 = DATE_TIME_ROLE ( 'creation_date' ) ;
#158 = ORGANIZATION ( 'UNSPECIFIED', 'UNSPECIFIED', '' ) ;
#159 = CARTESIAN_POINT ( 'NONE',  ( 1.745740669421566678E-13, 1.199999999999995515, 50.00000000000000000 ) ) ;
#160 = CARTESIAN_POINT ( 'NONE',  ( 2.444036937190193349E-14, 0.7899999999999988143, 7.000000000000000000 ) ) ;
#161 = CC_DESIGN_DATE_AND_TIME_ASSIGNMENT ( #46, #87, ( #179 ) ) ;
#162 = CONICAL_SURFACE ( 'NONE', #275, 0.6899999999999983924, 0.5235987755982925984 ) ;
#163 = PERSON_AND_ORGANIZATION_ROLE ( 'creator' ) ;
#164 = EDGE_LOOP ( 'NONE', ( #88 ) ) ;
#165 = FACE_OUTER_BOUND ( 'NONE', #212, .T. ) ;
#166 = ORIENTED_EDGE ( 'NONE', *, *, #106, .T. ) ;
#167 = ADVANCED_FACE ( 'NONE', ( #172 ), #153, .F. ) ;
#168 = AXIS2_PLACEMENT_3D ( 'NONE', #44, #143, #24 ) ;
#169 = DATE_AND_TIME ( #74, #298 ) ;
#170 = CIRCLE ( 'NONE', #36, 1.200000000000001732 ) ;
#171 = FACE_OUTER_BOUND ( 'NONE', #61, .T. ) ;
#172 = FACE_OUTER_BOUND ( 'NONE', #39, .T. ) ;
#173 = DIRECTION ( 'NONE',  ( -3.491481338843133355E-15, 1.224646799147353207E-16, -1.000000000000000000 ) ) ;
#174 = DIRECTION ( 'NONE',  ( 0.0000000000000000000, 1.000000000000000000, 0.0000000000000000000 ) ) ;
#175 = APPROVAL_PERSON_ORGANIZATION ( #185, #104, #253 ) ;
#176 = CARTESIAN_POINT ( 'NONE',  ( 0.0000000000000000000, 0.0000000000000000000, 0.0000000000000000000 ) ) ;
#177 = PRODUCT_DEFINITION ( 'UNKNOWN', '', #303, #95 ) ;
#178 = DIRECTION ( 'NONE',  ( 0.0000000000000000000, 1.000000000000000000, 0.0000000000000000000 ) ) ;
#179 = SECURITY_CLASSIFICATION ( '', '', #22 ) ;
#180 = CARTESIAN_POINT ( 'NONE',  ( 8.728703347107833388E-16, 0.7899999999999988143, 0.2500000000000000000 ) ) ;
#181 = PERSON_AND_ORGANIZATION ( #251, #158 ) ;
#182 = COORDINATED_UNIVERSAL_TIME_OFFSET ( 1, 0, .AHEAD. ) ;
#183 = AXIS2_PLACEMENT_3D ( 'NONE', #218, #154, #292 ) ;
#184 = PERSON_AND_ORGANIZATION_ROLE ( 'design_owner' ) ;
#185 = PERSON_AND_ORGANIZATION ( #251, #158 ) ;
#186 = ADVANCED_FACE ( 'NONE', ( #204, #289 ), #135, .T. ) ;
#187 = DIRECTION ( 'NONE',  ( -3.491481338843133355E-15, 1.224646799147353207E-16, -1.000000000000000000 ) ) ;
#188 = TOROIDAL_SURFACE ( 'NONE', #226, 2.689999999999999059, 2.000000000000000000 ) ;
#189 = AXIS2_PLACEMENT_3D ( 'NONE', #264, #9, #100 ) ;
#190 = ORIENTED_EDGE ( 'NONE', *, *, #211, .F. ) ;
#191 = EDGE_LOOP ( 'NONE', ( #4 ) ) ;
#192 = PERSON_AND_ORGANIZATION_ROLE ( 'design_supplier' ) ;
#193 = AXIS2_PLACEMENT_3D ( 'NONE', #294, #86, #107 ) ;
#194 = FACE_OUTER_BOUND ( 'NONE', #164, .T. ) ;
#195 = PRODUCT_RELATED_PRODUCT_CATEGORY ( 'detail', '', ( #196 ) ) ;
#196 = PRODUCT ( '63966', '63966', '', ( #274 ) ) ;
#197 = CARTESIAN_POINT ( 'NONE',  ( 2.504511167915744066E-14, -8.784642641776459355E-16, 7.173205080756893004 ) ) ;
#198 = ADVANCED_FACE ( 'NONE', ( #238, #103 ), #202, .T. ) ;
#199 = DIRECTION ( 'NONE',  ( -3.491481338843133355E-15, 1.224646799147353207E-16, -1.000000000000000000 ) ) ;
#200 = CLOSED_SHELL ( 'NONE', ( #67, #186, #27, #265 ) ) ;
#201 = FACE_OUTER_BOUND ( 'NONE', #217, .T. ) ;
#202 = CONICAL_SURFACE ( 'NONE', #146, 1.200000000000001732, 0.7853981633974453924 ) ;
#203 = DIRECTION ( 'NONE',  ( 0.0000000000000000000, 1.000000000000000000, 0.0000000000000000000 ) ) ;
#204 = FACE_BOUND ( 'NONE', #70, .T. ) ;
#205 = CC_DESIGN_PERSON_AND_ORGANIZATION_ASSIGNMENT ( #262, #114, ( #179 ) ) ;
#206 = APPROVAL_STATUS ( 'not_yet_approved' ) ;
#207 = CIRCLE ( 'NONE', #26, 0.6456624327025943799 ) ;
#208 = CIRCLE ( 'NONE', #183, 0.6899999999999992806 ) ;
#209 = VERTEX_POINT ( 'NONE', #180 ) ;
#210 = FACE_OUTER_BOUND ( 'NONE', #257, .T. ) ;
#211 = EDGE_CURVE ( 'NONE', #108, #108, #64, .T. ) ;
#212 = EDGE_LOOP ( 'NONE', ( #237 ) ) ;
#213 = CIRCLE ( 'NONE', #239, 0.7899999999999997025 ) ;
#214 = APPROVAL_STATUS ( 'not_yet_approved' ) ;
#215 = ORIENTED_EDGE ( 'NONE', *, *, #211, .T. ) ;
#216 = EDGE_LOOP ( 'NONE', ( #141 ) ) ;
#217 = EDGE_LOOP ( 'NONE', ( #259 ) ) ;
#218 = CARTESIAN_POINT ( 'NONE',  ( 5.237222008264699402E-14, -1.836970198721029589E-15, 14.99999999999999822 ) ) ;
#219 = DIRECTION ( 'NONE',  ( -3.491481338843133355E-15, 1.224646799147353207E-16, -1.000000000000000000 ) ) ;
#220 = FACE_BOUND ( 'NONE', #281, .T. ) ;
#221 = FACE_OUTER_BOUND ( 'NONE', #47, .T. ) ;
#222 = CC_DESIGN_SECURITY_CLASSIFICATION ( #179, ( #303 ) ) ;
#223 = FACE_OUTER_BOUND ( 'NONE', #115, .T. ) ;
#224 = CARTESIAN_POINT ( 'NONE',  ( -3.785471652766323151E-31, 0.6456624327025943799, -1.084202172485504434E-16 ) ) ;
#225 = VERTEX_POINT ( 'NONE', #159 ) ;
#226 = AXIS2_PLACEMENT_3D ( 'NONE', #72, #282, #5 ) ;
#227 = LOCAL_TIME ( 15, 4, 21.00000000000000000, #279 ) ;
#228 = PERSON_AND_ORGANIZATION ( #251, #158 ) ;
#229 = APPROVAL_ROLE ( '' ) ;
#230 = AXIS2_PLACEMENT_3D ( 'NONE', #14, #240, #271 ) ;
#231 = EDGE_LOOP ( 'NONE', ( #121 ) ) ;
#232 = CALENDAR_DATE ( 2021, 1, 12 ) ;
#233 = ORIENTED_EDGE ( 'NONE', *, *, #99, .T. ) ;
#234 = ORIENTED_EDGE ( 'NONE', *, *, #156, .T. ) ;
#235 = LOCAL_TIME ( 15, 4, 21.00000000000000000, #20 ) ;
#236 = EDGE_LOOP ( 'NONE', ( #283 ) ) ;
#237 = ORIENTED_EDGE ( 'NONE', *, *, #3, .F. ) ;
#238 = FACE_OUTER_BOUND ( 'NONE', #191, .T. ) ;
#239 = AXIS2_PLACEMENT_3D ( 'NONE', #242, #52, #241 ) ;
#240 = DIRECTION ( 'NONE',  ( 3.491481338843133355E-15, -1.224646799147353207E-16, 1.000000000000000000 ) ) ;
#241 = DIRECTION ( 'NONE',  ( 0.0000000000000000000, 1.000000000000000000, 0.0000000000000000000 ) ) ;
#242 = CARTESIAN_POINT ( 'NONE',  ( 2.444036937190193349E-14, -8.572527594031473190E-16, 7.000000000000000000 ) ) ;
#243 = DIRECTION ( 'NONE',  ( 4.275831445896959482E-31, 1.000000000000000000, 1.224646799147353454E-16 ) ) ;
#244 = DIRECTION ( 'NONE',  ( -3.491481338843133355E-15, 1.224646799147353207E-16, -1.000000000000000000 ) ) ;
#245 = ADVANCED_FACE ( 'NONE', ( #7, #220 ), #162, .T. ) ;
#246 =( NAMED_UNIT ( * ) PLANE_ANGLE_UNIT ( ) SI_UNIT ( $, .RADIAN. ) );
#247 = ORIENTED_EDGE ( 'NONE', *, *, #273, .F. ) ;
#248 = CARTESIAN_POINT ( 'NONE',  ( 2.504511167915744066E-14, 0.6899999999999975042, 7.173205080756893004 ) ) ;
#249 = CC_DESIGN_APPROVAL ( #59, ( #303 ) ) ;
#250 = APPLICATION_CONTEXT ( 'configuration controlled 3d designs of mechanical parts and assemblies' ) ;
#251 = PERSON ( 'UNSPECIFIED', 'UNSPECIFIED', 'UNSPECIFIED', ('UNSPECIFIED'), ('UNSPECIFIED'), ('UNSPECIFIED') ) ;
#252 = VERTEX_POINT ( 'NONE', #224 ) ;
#253 = APPROVAL_ROLE ( '' ) ;
#254 = ORIENTED_EDGE ( 'NONE', *, *, #131, .F. ) ;
#255 = AXIS2_PLACEMENT_3D ( 'NONE', #176, #219, #270 ) ;
#256 = EDGE_LOOP ( 'NONE', ( #93 ) ) ;
#257 = EDGE_LOOP ( 'NONE', ( #23 ) ) ;
#258 = ADVANCED_FACE ( 'NONE', ( #221, #201 ), #290, .T. ) ;
#259 = ORIENTED_EDGE ( 'NONE', *, *, #131, .T. ) ;
#260 = CC_DESIGN_PERSON_AND_ORGANIZATION_ASSIGNMENT ( #69, #163, ( #303 ) ) ;
#261 = AXIS2_PLACEMENT_3D ( 'NONE', #263, #51, #25 ) ;
#262 = PERSON_AND_ORGANIZATION ( #251, #158 ) ;
#263 = CARTESIAN_POINT ( 'NONE',  ( -3.273107692975202869E-31, 1.148051634952974578E-32, -9.374553020122150427E-17 ) ) ;
#264 = CARTESIAN_POINT ( 'NONE',  ( 8.728703347107829444E-16, -3.061616997868381785E-17, 0.2499999999999998890 ) ) ;
#265 = ADVANCED_FACE ( 'NONE', ( #98 ), #269, .T. ) ;
#266 = DIRECTION ( 'NONE',  ( 0.0000000000000000000, 1.000000000000000000, 0.0000000000000000000 ) ) ;
#267 = CIRCLE ( 'NONE', #48, 1.500000000000001554 ) ;
#268 = AXIS2_PLACEMENT_3D ( 'NONE', #197, #78, #174 ) ;
#269 = PLANE ( 'NONE',  #76 ) ;
#270 = DIRECTION ( 'NONE',  ( 4.275831445896958607E-31, 1.000000000000000000, 1.224646799147353207E-16 ) ) ;
#271 = DIRECTION ( 'NONE',  ( -4.275831445896958607E-31, -1.000000000000000000, -1.224646799147353207E-16 ) ) ;
#272 = APPROVAL ( #206, 'UNSPECIFIED' ) ;
#273 = EDGE_CURVE ( 'NONE', #38, #38, #12, .T. ) ;
#274 = MECHANICAL_CONTEXT ( 'NONE', #125, 'mechanical' ) ;
#275 = AXIS2_PLACEMENT_3D ( 'NONE', #102, #199, #203 ) ;
#276 = EDGE_LOOP ( 'NONE', ( #247 ) ) ;
#277 = DATE_AND_TIME ( #60, #54 ) ;
#278 = CIRCLE ( 'NONE', #109, 0.7203844939755804644 ) ;
#279 = COORDINATED_UNIVERSAL_TIME_OFFSET ( 1, 0, .AHEAD. ) ;
#280 = EDGE_CURVE ( 'NONE', #15, #15, #6, .T. ) ;
#281 = EDGE_LOOP ( 'NONE', ( #215 ) ) ;
#282 = DIRECTION ( 'NONE',  ( -3.491481338843133355E-15, 1.224646799147353207E-16, -1.000000000000000000 ) ) ;
#283 = ORIENTED_EDGE ( 'NONE', *, *, #106, .F. ) ;
#284 = APPROVAL_STATUS ( 'not_yet_approved' ) ;
#285 = CYLINDRICAL_SURFACE ( 'NONE', #40, 0.7899999999999992584 ) ;
#286 = AXIS2_PLACEMENT_3D ( 'NONE', #288, #127, #291 ) ;
#287 = CYLINDRICAL_SURFACE ( 'NONE', #168, 1.499999999999998890 ) ;
#288 = CARTESIAN_POINT ( 'NONE',  ( 6.902210161358734580E-14, -2.420969428394839711E-15, 19.76871560094235392 ) ) ;
#289 = FACE_OUTER_BOUND ( 'NONE', #29, .T. ) ;
#290 = CYLINDRICAL_SURFACE ( 'NONE', #255, 0.6899999999999987255 ) ;
#291 = DIRECTION ( 'NONE',  ( 0.0000000000000000000, 1.000000000000000000, 0.0000000000000000000 ) ) ;
#292 = DIRECTION ( 'NONE',  ( 0.0000000000000000000, 1.000000000000000000, 0.0000000000000000000 ) ) ;
#293 = APPLICATION_PROTOCOL_DEFINITION ( 'international standard', 'config_control_design', 1994, #250 ) ;
#294 = CARTESIAN_POINT ( 'NONE',  ( 0.0000000000000000000, 0.0000000000000000000, 0.0000000000000000000 ) ) ;
#295 = DATE_AND_TIME ( #137, #235 ) ;
#296 = APPLICATION_PROTOCOL_DEFINITION ( 'international standard', 'config_control_design', 1994, #125 ) ;
#297 = AXIS2_PLACEMENT_3D ( 'NONE', #34, #81, #57 ) ;
#298 = LOCAL_TIME ( 15, 4, 21.00000000000000000, #118 ) ;
#299 = APPROVAL_DATE_TIME ( #169, #59 ) ;
#300 = ADVANCED_FACE ( 'NONE', ( #223 ), #53, .F. ) ;
#301 = CARTESIAN_POINT ( 'NONE',  ( 0.0000000000000000000, 0.0000000000000000000, 0.0000000000000000000 ) ) ;
#302 = FACE_BOUND ( 'NONE', #216, .T. ) ;
#303 = PRODUCT_DEFINITION_FORMATION_WITH_SPECIFIED_SOURCE ( 'ANY', '', #196, .NOT_KNOWN. ) ;
ENDSEC;
END-ISO-10303-21;
